Acordes y tablaturas para guitarra

Acordes y Tablaturas
Usuario: Password:

Buscar:
Acordes y Tablaturas >> Letra M >> Acordes de METALLICA >> nothing else matters
Tablatura de nothing else matters, METALLICA

Nothing else matters

METALLICA






Intro
|-------0------|   |-------0---7-|-7-----7h0-----|-----7--8--7h8h7/5--7-5/2---|-------2h0-----|------0---| 
|-----0---0----|   |-----0---0---|---0---0---0---|-0---0--0-----------0-----5-|-5---5-----5---|----5-----| 
|---0-------0--|   |---0---------|-----0-------0-|---0------------------------|---5---------5-|---5------| 
|--------------|   |-------------|---------------|----------------------------|---------------|----------| 
|--------------|   |-------------|---------------|----------------------------|-0-------------|-0--------|  
|-0------------|X3 |-0-----------|-0-------------|-0--------------------------|---------------|----------| 


|-0-0-0-|---------3h0-----|-0-0-|---------0h5p0---------|-----------<12>------| |-------0------|  
|-5-5-5-|-----5-------5---|-5-7-|-----7---------7p0-0h5-|-------<12>-----0----| |-----0---0----|   
|-5-5-5-|---5---5-------5-|-5-7-|---7---7---------------|---<12>-----------0--| |---0-------0--| 
|-------|-----------------|-----|-----------------------|---------------------| |--------------|     
|-0-2-3-|-3---------------|-3-5-|-5---------------------|---------------------| |--------------| 
|-------|-----------------|-----|-----------------------|-0-------------------| |-0------------|X3


|----------7~-|---------------|   |-----------------|-----------0--------|-----------0------| 
|----------8~-|------7-----5--|   |-------3---------|--------0-----0-----|--------0-----0---| 
|--------9----|------7-----5--|   |-------4------4--|-----0-----------0--|-----0----------0-| 
|------9------|----7-----5----|   |-----5------4----|--------------------|------------------| 
|----7--------|--5-----3------|   |----------2------|--------------------|------------------| 
|-0-----------|---------------|x3 |--3--------------|--0-----------------|--0---------------|




oo:58 zona hablada 
Verso1)

       So close no matter how far                 Couldn't be much more from the heart
|------3---0-----|--2----3----|-0----------|-------3---0-----|--2---------------------| 
|-----0------0---|--------3---|----3-------|-----0-------0---| ------3-----3----3-----| 
|---0----0-----0-|----------0-|------0-----|---0------0----0-|---------2h0----0-------| 
|----------------|--0--0------|------------|-----------------|--0--0------------------| 
|----------------|------------|-3----------|-----------------|-------------3----------| 
|-0--------------|------------|--------3-2-|-0---------------|--------------------3-2-| 



         Forever trusting who we are              And nothing else matters
|--------3---0-----|--2----3-----3------|------3--2----2----|--0--------0--------|-----------0---------| 
|------0-------0---|---------3-----3----|------3--0------0--|--------0-----0-----|--------0-----0------| 
|----0-----0-----0-|-----------0-----0--|---0-----2---------|-----0-----------0--|-----0---------------| 
|------------------|--0--0--------------|-------------------|--------------------|---------------------| 
|------------------|-------------3------|---------2--2------|--------------------|---------------------| 
|--0---------------|--------------------|-3-----------------|--0-----------------|--0--------------3-2-|






   Verso 2 )
                 
       Never opened myself this wa                 Life is ours, we live it our way
|------3---0-----|--2----3----|-0----------|-------3---0-----|--2---------------------| 
|-----0------0---|--------3---|----3-------|-----0-------0---| ------3-----3----3-----| 
|---0----0-----0-|----------0-|------0-----|---0------0----0-|---------2h0----0-------| 
|----------------|--0--0------|------------|-----------------|--0--0------------------| 
|----------------|------------|-3----------|-----------------|-------------3----------| 
|-0--------------|------------|--------3-2-|-0---------------|--------------------3-2-| 

         All these words i don't just             say And nothing else matters
|--------3---0-----|--2----3-----3------|------3--2----2----|--0--------0--------|-----------0---------| 
|------0-------0---|---------3-----3----|------3--0------0--|--------0-----0-----|--------0-----0------| 
|----0-----0-----0-|-----------0-----0--|---0-----2---------|-----0-----------0--|-----0---------------| 
|------------------|--0--0--------------|-------------------|--------------------|---------------------| 
|------------------|-------------3------|---------2--2------|--------------------|---------------------| 
|--0---------------|--------------------|-3-----------------|--0-----------------|--0--------------3-2-|
Verso 3
       Trust I seek and I find in you              Every day for us something new
|------3---0-----|--2----3----|-0----------|-------3---0-----|--2---------------------| 
|-----0------0---|--------3---|----3-------|-----0-------0---| ------3-----3----3-----| 
|---0----0-----0-|----------0-|------0-----|---0------0----0-|---------2h0----0-------| 
|----------------|--0--0------|------------|-----------------|--0--0------------------| 
|----------------|------------|-3----------|-----------------|-------------3----------| 
|-0--------------|------------|--------3-2-|-0---------------|--------------------3-2-| 

         Open mind for a diffrent view	        And nothing else matters
|--------3---0-----|--2----3-----3------|------3--2----2----|--0--------0--------| 
|------0-------0---|---------3-----3----|------3--0------0--|--------0-----0-----| 
|----0-----0-----0-|-----------0-----0--|---0-----2---------|-----0-----------0--|
|------------------|--0--0--------------|-------------------|--------------------| 
|------------------|-------------3------|---------2--2------|--------------------|
|--0---------------|--------------------|-3-----------------|--0-----------------|



coro: 02:04   Coro:


                    Never cared                            Never cared for         And I know
                    for what do                                          what they know
1 |--0---0--| --2---2--2-3-2--0--2-|--0------0------|--2---2--2-3-2--0--2-|--0--0--2-0---||------0----||------0-
2 |--1---2--| --3---3--3-3-3--3--3-|--1------2------|--3---3--3-3-3--3--3-|--1--2--3-0---||----0---0--||----0---0---
3 |--0---2--| --2---2--2-2-2--2--2-|--0------2------|--2---2--2-2-2--2--2-|--0--2--2-0---||--0-------0||--0-------0-
4 |--2---2--| --0---0--0-0-0--0--0-|--2------2------|--0---0--0-0-0--0--0-|--2--2--0-2---||-----------||--------
5 |--3---0--| ---------------------|--3------0------|---------------------|--3--0--0-2---||-----------||--------
6 |---------| ---------------------|----------------|---------------------|----------0---||0----------||0------- 




02:23    Verso 1
       So close no matter how far                 Couldn't be much more from the heart
|------3---0-----|--2----3----|-0----------|-------3---0-----|--2---------------------| 
|-----0------0---|--------3---|----3-------|-----0-------0---| ------3-----3----3-----| 
|---0----0-----0-|----------0-|------0-----|---0------0----0-|---------2h0----0-------| 
|----------------|--0--0------|------------|-----------------|--0--0------------------| 
|----------------|------------|-3----------|-----------------|-------------3----------| 
|-0--------------|------------|--------3-2-|-0---------------|--------------------3-2-| 



         Forever trusting who we are              And nothing else matters
|--------3---0-----|--2----3-----3------|------3--2----2----|--0--------0--------|-----------0---------| 
|------0-------0---|---------3-----3----|------3--0------0--|--------0-----0-----|--------0-----0------| 
|----0-----0-----0-|-----------0-----0--|---0-----2---------|-----0-----------0--|-----0---------------| 
|------------------|--0--0--------------|-------------------|--------------------|---------------------| 
|------------------|-------------3------|---------2--2------|--------------------|---------------------| 
|--0---------------|--------------------|-3-----------------|--0-----------------|--0--------------3-2-|
02:44 Coro:
                    Never cared                            Never cared for         And I know
                    for what do                             what they know
1 |--0---0--| --2---2--2-3-2--0--2-|--0------0------|--2---2--2-3-2--0--2-|--0--0--2-0---||------0----||------0-----
2 |--1---2--| --3---3--3-3-3--3--3-|--1------2------|--3---3--3-3-3--3--3-|--1--2--3-0---||----0---0--||----0---0---
3 |--0---2--| --2---2--2-2-2--2--2-|--0------2------|--2---2--2-2-2--2--2-|--0--2--2-0---||--0-------0||--0-------0-
4 |--2---2--| --0---0--0-0-0--0--0-|--2------2------|--0---0--0-0-0--0--0-|--2--2--0-2---||-----------||------------
5 |--3---0--| ---------------------|--3------0------|---------------------|--3--0--0-2---||-----------||------------
6 |---------| ---------------------|----------------|---------------------|----------0---||0----------||0-----------












03:02    (guitarra 2)  
1 |--12----14----|-15----17---|--8-----8------------8-----|-0------0--|--0-----0---|--0-7-7----7h0----|------0--------| 
2 |-----12----12-|---12----12-|----5-----5--------5---5---|---1-----1-|---3-----3--|--------0------0--|----0---0------| 
3 |--------------|------------|------5-----5----5-------5-|-----0-----|-----2------|----------------0-|---0-----------| 
4 |--------------|------------|---------------------------|-----------|------------|------------------|---------------| 
5 |--------------|------------|---------------0-----------|-----------|------------|------------------|---------------| 
6 |--------------|------------|---------------------------|-----------|------------|------------------|-0---------2-3-| 
  
   (guitarra 1)
  |--15------17--|-19----20-----|-12--------|--11/12--------|--12/14--------|-----------------| 
  |-----17-----17|---17-----17--|----13-----|--------13-----|--------15-----|----17----17-----| 
  |--------------|--------------|-------12--|-----------14--|----------14---|-16----------16--| 
  |--------------|--------------|-----------|---------------|---------------|-----------------| 
  |--------------|--------------|-----------|---------------|---------------|-----------------| 
  |--------------|--------------|-----------|---------------|---------------|-----------------| 
 (guitarra 2)  
  |15-----17--|19----20---|12-------|11/12-------|--------------------------------------------|----------------------------
  |---17----17|--17-----17|---13----|------13----|-----------------------------15-------------|-15--15--15-----------------
  |-----------|-----------|------12-|---------14-|-------12-12h14-------12-14-14b16r14p12-12--|-14--14--14r-p12------------
  |-----------|-----------|---------|------------|12-14----------12-14----------------------14|----------------14p12—12/14-17-14-
  |-----------|-----------|---------|------------|--------------------------------------------|----------------------------
  |-----------|-----------|---------|------------|--------------------------------------------|----------------------------
  (guitarra 1)
1 |--12----14----|-15----17---|--8-----8------------8-----|-0------0--|--0-----0---|--0-7-7----7h0----|------0--------| 
2 |-----12----12-|---12----12-|----5-----5--------5---5---|---1-----1-|---3-----3--|--------0------0--|----0---0------| 
3 |--------------|------------|------5-----5----5-------5-|-----0-----|-----2------|----------------0-|---0-----------| 
4 |--------------|------------|---------------------------|-----------|------------|------------------|---------------| 
5 |--------------|------------|---------------0-----------|-----------|------------|------------------|---------------| 
6 |--------------|------------|---------------------------|-----------|------------|------------------|-0---------2-3-|
03:44  Verso 2
       Never opened myself this wa                 Life is ours, we live it our way
|------3---0-----|--2----3----|-0----------|-------3---0-----|--2---------------------| 
|-----0------0---|--------3---|----3-------|-----0-------0---| ------3-----3----3-----| 
|---0----0-----0-|----------0-|------0-----|---0------0----0-|---------2h0----0-------| 
|----------------|--0--0------|------------|-----------------|--0--0------------------| 
|----------------|------------|-3----------|-----------------|-------------3----------| 
|-0--------------|------------|--------3-2-|-0---------------|--------------------3-2-| 

         All these words i don't just say      And nothing else matters
|--------3---0-----|--2----3-----3------|------3--2----2----|--0--------0--------|-----------0---------| 
|------0-------0---|---------3-----3----|------3--0------0--|--------0-----0-----|--------0-----0------| 
|----0-----0-----0-|-----------0-----0--|---0-----2---------|-----0-----------0--|-----0---------------| 
|------------------|--0--0--------------|-------------------|--------------------|---------------------| 
|------------------|-------------3------|---------2--2------|--------------------|---------------------| 
|--0---------------|--------------------|-3-----------------|--0-----------------|--0--------------3-2-|
 Verso3
       Trust I seek and I find in you              Every day for us something new
|------3---0-----|--2----3----|-0----------|-------3---0-----|--2---------------------| 
|-----0------0---|--------3---|----3-------|-----0-------0---| ------3-----3----3-----| 
|---0----0-----0-|----------0-|------0-----|---0------0----0-|---------2h0----0-------| 
|----------------|--0--0------|------------|-----------------|--0--0------------------| 
|----------------|------------|-3----------|-----------------|-------------3----------| 
|-0--------------|------------|--------3-2-|-0---------------|--------------------3-2-| 

         Open mind for a diffrent view	        And nothing else matters
|--------3---0-----|--2----3-----3------|------3--2----2----|--0--------0--------| 
|------0-------0---|---------3-----3----|------3--0------0--|--------0-----0-----| 
|----0-----0-----0-|-----------0-----0--|---0-----2---------|-----0-----------0--|
|------------------|--0--0--------------|-------------------|--------------------| 
|------------------|-------------3------|---------2--2------|--------------------|
|--0---------------|--------------------|-3-----------------|--0-----------------|
Coro:

04:24
                    Never cared                            Never cared 
                    for what they say                     for games they play
1 |--0---0--| --2---2--2-3-2--0--2-|--0------0------|--2---2--2-3-2--0--2-|
2 |--1---2--| --3---3--3-3-3--3--3-|--1------2------|--3---3--3-3-3--3--3-|
3 |--0---2--| --2---2--2-2-2--2--2-|--0------2------|--2---2--2-2-2--2--2-| 
4 |--2---2--| --0---0--0-0-0--0--0-|--2------2------|--0---0--0-0-0--0--0-| 
5 |--3---0--| ---------------------|--3------0------|---------------------|
6 |---------| ---------------------|----------------|---------------------|

                Never cared                             Never cared            And I know
                 for what do                            for what they
1 |0---0| --2---2--2-3-2--0--2-|--0------0------|--2---2--2-3-2--0--2-|--0--0--2-0---||-------0------||-------0-----
2 |1---2| --3---3--3-3-3--3--3-|--1------2------|--3---3--3-3-3--3--3-|--1--2--3-0---||-----0---0----||-----0---0---
3 |0---2| --2---2--2-2-2--2--2-|--0------2------|--2---2--2-2-2--2--2-|--0--2--2-0---||---0-------0--||---0-------0-
4 |2---2| --0---0--0-0-0--0--0-|--2------2------|--0---0--0-0-0--0--0-|--2--2--0-2---||--------------||---------
5 |3---0| ---------------------|--3------0------|---------------------|--3--0--0-2---||--------------||---------
6 |-----| ---------------------|----------------|---------------------|----------0---||-0------------||-0------- 










Solo:  guitarra  2
|---------------------|--------------------------------|-------12-------12-------------------------------------------| 
|-15------------------|--------------------------------|----12-------12----15h12----12---------------14—14b----------| 
|-14b--14r-12~--14-12-|-11h12h11----11--------12-14-12-|-14b------14b------------15----15p14p12b-----14—14b-13-12~---| 
|---------------------|----------14----12-14~----------|-----------------------------------------14------------------|  
|---------------------|--------------------------------|-------------------------------------------------------------|
|---------------------|--------------------------------|-------------------------------------------------------------| 
|15-14----15--14-15/17-17|15-14h15p14----15-14-----------
|------12----------------|------------12------12---------|
|------------------------|-----------------------12-14-12|
|------------------------|-------------------------------|

|---------------------------12-----------------------|------------
|15-----------------------12---15-15b17=r15p12--15b17|-12h14p12-7-5h7p5-|
|14b16-16pb14p12----12-14b---------------------------|------------
|----------------14----------------------------------|------------











(Esto se ace cuando la guitarra 2 esta tocando)   

       como kien dice esta es la guitarra 1
|------3---0-----|--2----3----|-0----------|-------3---0-----|--2---------------------| 
|-----0------0---|--------3---|----3-------|-----0-------0---| ------3-----3----3-----| 
|---0----0-----0-|----------0-|------0-----|---0------0----0-|---------2h0----0-------| 
|----------------|--0--0------|------------|-----------------|--0--0------------------| 
|----------------|------------|-3----------|-----------------|-------------3----------| 
|-0--------------|------------|--------3-2-|-0---------------|--------------------3-2-| 



|--------3---0-----|--2----3-----3------|------3--2----2----|  |--0--------0--------|
|------0-------0---|---------3-----3----|------3--0------0--|  |--------0-----0-----|
|----0-----0-----0-|-----------0-----0--|---0-----2---------|  |-----0-----------0--| x 4 veses
|------------------|--0--0--------------|-------------------|  |--------------------|
|------------------|-------------3------|---------2--2------|  |--------------------| 
|--0---------------|--------------------|-3-----------------|  |--0-----------------|




















      
       So close no matter how far                 Couldn't be much more from the heart
|------3---0-----|--2----3----|-0----------|-------3---0-----|--2---------------------| 
|-----0------0---|--------3---|----3-------|-----0-------0---| ------3-----3----3-----| 
|---0----0-----0-|----------0-|------0-----|---0------0----0-|---------2h0----0-------| 
|----------------|--0--0------|------------|-----------------|--0--0------------------| 
|----------------|------------|-3----------|-----------------|-------------3----------| 
|-0--------------|------------|--------3-2-|-0---------------|--------------------3-2-| 



         Forever trusting who we are              And nothing else matters
|--------3---0-----|--2----3-----3------|------3--2----2----|--0--------0--------|
|------0-------0---|---------3-----3----|------3--0------0--|--------0-----0-----| 
|----0-----0-----0-|-----------0-----0--|---0-----2---------|-----0-----------0--| 
|------------------|--0--0--------------|-------------------|--------------------|
|------------------|-------------3------|---------2--2------|--------------------| 
|--0---------------|--------------------|-3-----------------|--0-----------------|




















Outro:
|-------0---7-|-7-----7p0-----|-----7-8-7h8p75-|-7-53-0-|
|-----0---0---|---0-------0---|-----0-0---------|-0-------|
|---0---------|-----0-------0-|---0-------------|---------|
|-------------|---------------|-----------------|---------|
|-------------|---------------|-----------------|---------|
|-0-----------|-0-------------|-0---------------|---------|


|-0-----0-----|-------0---7-|-7-----7p0-----|-----7-8-7h8p75-|
|-----0---0---|-----0---0---|---0-------0---|-----0-0---------|
|---0-------0-|---0---------|-----0-------0-|---0-------------|
|-------------|-------------|---------------|-----------------|
|-------------|-------------|---------------|-----------------|
|-0-----------|-0-----------|-0-------------|-0---------------|


|-7-53-0-|-0-----0-----|-------0---7-|-7-----7p0-----|
|-0-------|-----0---0---|-----0---0---|---0-------0---|
|---------|---0-------0-|---0---------|-----0-------0-|
|---------|-------------|-------------|---------------|
|---------|-------------|-------------|---------------|
|---------|-0-----------|-0-----------|-0-------------|


|-----7-8-7h8p75-|-7-53-0-|-0-----0-----|-------0---7-|
|-----0-0---------|-0-------|-----0---0---|-----0---0---|
|---0-------------|---------|---0-------0-|---0---------|
|-----------------|---------|-------------|-------------|
|-----------------|---------|-------------|-------------|
|-0---------------|---------|-0-----------|-0-----------|


Que te parecio? Calificalo con estrellas!!

Rating: 8.5/10 (2916 votos)

Este fichero es trabajo propio de su transcriptor y representa su interpretación personal de la canción. El material contenido en esta página es para exclusivo uso privado, por lo que se prohibe su reproducción o retransmisión, así como su uso para fines comerciales.


Deja tus comentarios:

Letras de METALLICA
Letras de canciones | Musica Independiente