Acordes y tablaturas para guitarra

Acordes y Tablaturas
Usuario: Password:

Buscar:
Acordes y Tablaturas >> Letra G >> Acordes de Guns N´ Roses >> My Michelle
Acordes de My Michelle, Guns N´ Roses

My Michelle

Guns N´ Roses






a5.b5.c5.d5.do.e5.g5.
 'My Michelle', Guns N' Roses
_____________________________

*transcripto por Seba A.
*email o msn por cualquier duda: [email protected]
*buenos aires, argentina
*esto es lo que toca Slash [una parte de la intro aparece como de Izzy, pero esa sola nada más]
*Album: 'Apetite for destruction' [1987]
*compuesta por axl rose para Michelle Young
_____________________________

INTRO:

[Slash:]
e|---------------------------------
B|-------2-------------------------
G|-----2---2-----------2-4-2-------
D|---2-------2---2---2-------2---2-
A|-4-----------4---3-----------3---
E|---------------------------------

e|---------------------------------
B|--------2----------------2-------
G|------2---2------------2---2-----
D|----4-------4--------4-------4---
A|--4-----------4----4-----------4-
E|2----------------2---------------



[Acompañamiento de Izzy Stradlin:]
e|[9]--[8]--[7]---[5]-------------
B|--------------------------------
G|[9]--[8]--[7]---[5]-------------
D|--------------------------------
A|--------------------------------
E|--------------------------------



-------------------------------------------------
 PARTE AGITADA:

e|----------------------------------
B|----------------------------------
G|-6--6-6-555544--------2--2----------
D|-6--6-6-555544--4--4--2--2--2--2--4-
A|-4--4-4-333322--4--4--0--0--2--2--4-
E|----------------2--2--------0--0--2-
[repetir 3 veces, luego:]


e|----------------------
B|----------------------
G|-6--6-6-5555554---[2]-
D|-6--6-6-5555554---[2]-
A|-4--4-4-3333332---[0]-
E|----------------------

________________________________________

VERSO:

e|----------------------
B|----------------------
G|-6-x-6-5x5x----2------
D|-6-x-6-5x5x--4-2-2--4-
A|-------------4---2--4-
E|----------------------
'Your daddy works in porno Now that mommy's not around'

e|-----------------------------
B|-----------------------------
G|-6-x-6-5x5x--66776------/9---
D|-6-x-6-5x5x--66776------/9---
A|-----------------------------
E|-----------------------------
She used to love her heroine But now she's underground

e|----------------------
B|----------------------
G|-6-x-6-5x5x----2------
D|-6-x-6-5x5x--4-2-2--4-
A|-------------4---2--4-
E|----------------------
So you stay out late at night And you Do your coke for free

e|----------------------
B|----------------------
G|----------------------
D|-6--6-6-5555554---[2]-
A|-4--4-4-3333332---[0]-
E|----------------------
Drivin' your friends crazy With your life's insanity

______________________________________________________

ESTRIBILLO:
e|---------------------------------------
B|---------------------------------------
G|7-----9------4-----4---7-----------2--
D|7-----9------4-----4---7-----2-----2---
A|-----------------------------2---------
E|---------------------------------------
Well,  well,  well   you just can't tell


e|-------------------------
B|-------------------------
G|7----6-----5---44---[2]--
D|7----6-----5---44---[2]--
A|-------------------------
E|-------------------------
'Well, well, well my Michelle'

__________________________________________

RIFF 2:

'Look out!'

e|----------------------------------
B|----------------------------------
G|-6--6-6-555544--------2--2----------
D|-6--6-6-555544--4--4--2--2--2--2--4-
A|-4--4-4-333322--4--4--0--0--2--2--4-
E|----------------2--2--------0--0--2-

e|----------------------
B|----------------------
G|-6--6-6-5555554---[2]-
D|-6--6-6-5555554---[2]-
A|-4--4-4-3333332---[0]-
E|----------------------
_____________________________________________
VERSO 2:

e|----------------------
B|----------------------
G|-6-x-6-5x5x----2------
D|-6-x-6-5x5x--4-2-2--4-
A|-------------4---2--4-
E|----------------------
Sowin' all your wild oats In another's luxuries

e|-----------------------------
B|-----------------------------
G|-6-x-6-5x5x--66776-----------
D|-6-x-6-5x5x--66776-----------
A|-----------------------------
E|-----------------------------
Yesterday was Tuesday Maybe Thursday you can sleep


e|----------------------
B|----------------------
G|-6-x-6-5x5x----2------
D|-6-x-6-5x5x--4-2-2--4-
A|-------------4---2--4-
E|----------------------
But school starts much too early And this hotel wasn't free

e|----------------------
B|----------------------
G|----------------------
D|-6--6-6-5555554---[2]-
A|-4--4-4-3333332---[0]-
E|----------------------
So party till your connection calls Honey I'll return the keys


Chorus:


______________________________________________________

ESTRIBILLO:
e|---------------------------------------
B|---------------------------------------
G|7-----9------4-----4---7-----------2--
D|7-----9------4-----4---7-----2-----2---
A|-----------------------------2---------
E|---------------------------------------
Well,  well,  well   you just can't tell


e|-------------------------
B|-------------------------
G|7----6-----5---44---[2]--
D|7----6-----5---44---[2]--
A|-------------------------
E|-------------------------
'Well, well, well my Michelle'

e|---------------------------------------
B|---------------------------------------
G|7-----9------4-----4---7-----------2--
D|7-----9------4-----4---7-----2-----2---
A|-----------------------------2---------
E|---------------------------------------
Well,  well,  well   you just can't tell


e|-------------------------
B|-------------------------
G|7----6-----5---44---[2]--
D|7----6-----5---44---[2]--
A|-------------------------
E|-------------------------
'Well, well, well my Michelle'

__________________________________________

  E5 D5        A5  B5       G5        E5
'everyone needs love you know that it's true

E5 D5        A5                  B5
someday you'll find someone that'll fall in love with you

E5      D5       A5     B5         G5  E5
but oh the time it takes, when you're all alone

E5 D5       A5                B5
someday you'll find someone that you Can call your own but til then you better...!'

___________________________________________________
SOLO:
|---------------------------------7---7--------------7--------------|
|-16hb-16hb-16-16---------------7---7----10fb~~~~~~~---10p9-9b[1½]--|
|-16fb-16fb-16-16p14----14----------------------------------9b[1½]--|
|--------------------16----16~~-------------------------------------|
|-------------------------------------------------------------------|
|-------------------------------------------------------------------|

|-7--------------7------------0-----------------------------------------|
|---10-------------10-----------0---------------------------------------|
|------r9[3/4]--------r9[3/4]-------------------------------------------|
|-----------------------------------------------------------------7-----|
|-----------------------------------10b[2]rb[2]rb[2]rb[2]r~~~-7fb---7fb-|
|-----------------------------------------------------------------------|

|-------------------------------------------------------------------|
|-------------------------------------------------------------------|
|-------------------------------------------------------------------|
|-----------------------------------------0---5fbr--5--5--[5]~~~~~~-|
|-7-5----------------------------2---4hb----------------------------|
|-----7--5-4-3---3fb--3~~~~-5fb----5--------------------------------|
_________________________________________________________

VERSOS 3:

e|----------------------
B|----------------------
G|-6-x-6-5x5x----2------
D|-6-x-6-5x5x--4-2-2--4-
A|-------------4---2--4-
E|----------------------
Now you're clean And so discreet I won't say a word

e|-----------------------------
B|-----------------------------
G|-6-x-6-5x5x--66776-----------
D|-6-x-6-5x5x--66776-----------
A|-----------------------------
E|-----------------------------
But most of all this song is true Case you haven't heard


e|----------------------
B|----------------------
G|-6-x-6-5x5x----2------
D|-6-x-6-5x5x--4-2-2--4-
A|-------------4---2--4-
E|----------------------
So c'mon and stop your cryin''Cause we both now money burns

e|----------------------
B|----------------------
G|----------------------
D|-6--6-6-5555554---[2]-
A|-4--4-4-3333332---[0]-
E|----------------------
Honey don't stop tryin';An' you'll get what you deserve


______________________________________________________

ESTRIBILLO:
e|---------------------------------------
B|---------------------------------------
G|7-----9------4-----4---7-----------2--
D|7-----9------4-----4---7-----2-----2---
A|-----------------------------2---------
E|---------------------------------------
Well,  well,  well   you just can't tell


e|-------------------------
B|-------------------------
G|7----6-----5---44---[2]--
D|7----6-----5---44---[2]--
A|-------------------------
E|-------------------------
'Well, well, well my Michelle'

e|---------------------------------------
B|---------------------------------------
G|7-----9------4-----4---7-----------2--
D|7-----9------4-----4---7-----2-----2---
A|-----------------------------2---------
E|---------------------------------------
Well,  well,  well   you just can't tell


e|-------------------------
B|-------------------------
G|7----6-----5---44---[2]--
D|7----6-----5---44---[2]--
A|-------------------------
E|-------------------------
'Well, well, well my Michelle'
______________________________________
OUTTRO:

A5        C5
My-my-michelle!
A5         C5
my-MY-michelle!
A5         C5
mymymymym-michelle!
A5         C5
mymmymymmy-michelle...!

e|--------
B|--------
G|4-2-----
D|----4-2-
A|--------
E|--------
[repetir varias veces]

                 A5
M I C H E L L E! 

Que te parecio? Calificalo con estrellas!!

Rating: 6.9/10 (64 votos)

Este fichero es trabajo propio de su transcriptor y representa su interpretación personal de la canción. El material contenido en esta página es para exclusivo uso privado, por lo que se prohibe su reproducción o retransmisión, así como su uso para fines comerciales.


Comentario de xxblackxpinkxx
solo de guitarra tomado de ultimate-guitar.com por ser demasiado extenso o comlpejo.
Deja tus comentarios:

Letras de Guns N´ Roses
Letras de canciones | Musica Independiente