Acordes y tablaturas para guitarra

Acordes y Tablaturas
Usuario: Password:

Buscar:
Acordes y Tablaturas >> Letra M >> Acordes de Mana >> manda una señal
Tablatura de manda una señal, Mana

Manda una señal

Mana






Intro:
G

C G Am G

    C
Te quiero si te quiero
    G                            Am     G
Voy andando como fiera tras tus pies amor
    C                     G
Te veo y te deseo pero tu
                                  Am   G
Tienes tu dueño y no te puedes safar

    Am       G        C
Los dias se pasan sin ti
     Am         G        C
Las noches se alargan sin ti
      Dm              G
Sin tu amor sin tus besos

  C                  Am                       Em   G
Ay si tuvieras libertad a tu lado yo estaria amor
  C                  Am                       Em   G
Hey dame dame una señal cuando seas libre mi amor
F                   C    G                  Am
Hay yo no puedo soportar no me quiero derrumbar
F                      C     G                  Am
Mandame un mensaje una señal manda una señal de amor
Em              Am
Manda una señal amor






E-------5-----------------10h12B—----12-10----10-12-10----------------------------          
B-----------8------------------------------13--------------13h15-15-13------------      
G---------5---5-5----10/12------------------------------12--------------10-9—7-5-5   
D----7---------------------------------------------------14-------------10-107-5-5          
A---7-----------------------------------------------------------------------------        
E--5------------------------------------------------------------------------------           

   C                      G                       Am   G
Te veo acorralada de unos brazos que no te dejan mover
   C                       G                      Am   G
Te deseo me deseas pero estas muy aprisionada corazon
    Am      G        C
Y no vivire sin tu amor
    Am      G         C       Cm        G
Y no parare hasta tener tu amor y tus besos

 C                      Am                            Em    G
Hey estoy viviendo sin vivir estoy muriendo sin poder morir
 C                    Am                       Em   G
Hey dime dime tell me too cuando seas libre mi amor
F                    C   G                  Am
Hay no lo puedo soportar no me quiero derrumbar
F                      C     G              Am
Mandame un mensaje una señal mandame tu luz amor
Em              Am
Manda una señal amor


E-------5-----------55-----5---------------5-------------5-------------5------        
B-----------8-------55----------8--------------8-------------8--------------8-     
G---------5---5-5---55--------5—--5-5--------5---5-5-------5---5-5--------5—--     
D----7--------------77---7---------------7-------------7-------------7--------         
A---7---------------77—7----------------7-------------7-------------7---------           
E--5----------------55-----------------5-------------5-------------5----------          



E--------------------------------------------
B-8-8------8-8------8-8----------------------
G-----10-9-----10-9-----10-9----------9-10-9-    2 veses
D----------------------------12-10-12--------
A--------------------------------------------
E-------------------------------------------

  Am           F            C           G
Vivir sin ti vivir estarse muriendo sin morir
  Am           F            C            G
Estar sin ti estar estarse muriendo sin morir
  Am           F              C          G
Amor donde estaras manda un mensaje una señal
  Am        F           C        G     Am  F C G
Y no no parare no vivire sin ti amor   no



E--------------------------------------------
B-8-8------8-8------8-8----------------------
G-----10-9-----10-9-----10-9----------9-10-9-    
D----------------------------12-10-12--------
A--------------------------------------------
E--------------------------------------------


Que te parecio? Calificalo con estrellas!!

Rating: 7.4/10 (346 votos)

Este fichero es trabajo propio de su transcriptor y representa su interpretación personal de la canción. El material contenido en esta página es para exclusivo uso privado, por lo que se prohibe su reproducción o retransmisión, así como su uso para fines comerciales.


Comentario de pon05
aer ke tal
Deja tus comentarios:

Letras de Mana
Letras de canciones | Musica Independiente