Acordes y tablaturas para guitarra

Acordes y Tablaturas
Usuario: Password:

Buscar:
Acordes y Tablaturas >> Letra N >> Acordes de Nickelback >> far away
Tablatura de far away, Nickelback

Far away

Nickelback






Gtr I            (Verse 1) X 5
  E E E E E E E E E E E E E E E E E E E E E E E E E E E E E E E E
|-------------------------------------------------------------------|
|---------------------------------------------------------2---------|
|-----4---3h4---------4---3h4---------4---3h4---------4-----4---4---|
|---4---4-----4-----4---4-----4-----4---4-----4-----4---4-----4-----|
|-2-------------2---------------------------------------------------|
|-----------------2-------------2-4-------------4-0-----------------|

                   (Pre-Chorus) 
  E E E E E E E E E E E E E E E E E E E E E E E
|--------------------------------------------------|
|---------4-------------4---------------7-----7----|
|-----6-----6---6---6-----6---6-----9-----9---9----|
|---6---6-----6-------6-----6-----9---9-----9-8----|
|-4---------------4-------------7------------------|
|--------------------------------------------------|

                   (Chorus) X 4
  E  E  E E E  E E  E  E  E E E  E E  E  E  E E E  E  E  E
|----------------------------------------------------------|
|----------------------------------------------------------|
|-4--4--4-4-4--4-4-----------------------------------------|
|-4--4--4-4-4--4-4--4--4--4-4-4--4-4--6--6--6-6-6--6--6--2-|
|-2--2--2-2-2--2-2--4--4--4-4-4--4-4--6--6--6-6-6--6--6--2-|
|-------------------2--2--2-2-2--2-2--4--4--4-4-4--4--4--0-|


  E  E E E  E  E
|-------------------|
|-------------------|
|-------------------|
|-2--2-2-2--2--2----|
|-2--2-2-2--2--2----|
|-0--0-0-0--0--0----|

                   (Verse 2) X 4
  E E E E E E E E E E E E E E E E E E E E E E E E E E E E E E E E
|-------------------------------------------------------------------|
|---------------------------------------------------------2---------|
|-----4---3h4---------4---3h4---------4---3h4---------4-----4---4---|
|---4---4-----4-----4---4-----4-----4---4-----4-----4---4-----4-----|
|-2-------------2---------------------------------------------------|
|-----------------2-------------2-4-------------4-0-----------------|

                   (Pre-Chorus) 
  E E E E E E E E E E E E E E E E E E E E E E E
|--------------------------------------------------|
|---------4-------------4---------------7-----7----|
|-----6-----6---6---6-----6---6-----9-----9---9----|
|---6---6-----6-------6-----6-----9---9-----9-8----|
|-4---------------4-------------7------------------|
|--------------------------------------------------|

                  (Chorus) X 4
  E  E  E E E  E E  E  E  E E E  E E  E  E  E E E  E  E  E
|----------------------------------------------------------|
|----------------------------------------------------------|
|-4--4--4-4-4--4-4-----------------------------------------|
|-4--4--4-4-4--4-4--4--4--4-4-4--4-4--6--6--6-6-6--6--6--2-|
|-2--2--2-2-2--2-2--4--4--4-4-4--4-4--6--6--6-6-6--6--6--2-|
|-------------------2--2--2-2-2--2-2--4--4--4-4-4--4--4--0-|
                    
                  (Bridge) X 2
  E E E E E E E E E E E E E E E E E E E E E E E E E E E E E E E E
|-------------------------------------------------------------------|
|---------------------------------------------------------2---------|
|-----4---3h4---------4---3h4---------4---3h4---------4-----4---4---|
|---4---4-----4-----4---4-----4-----4---4-----4-----4---4-----4-----|
|-2-------------2---------------------------------------------------|
|-----------------2-------------2-4-------------4-0-----------------|

                  (Pre-Chorus) 
  E E E E E E E E E E E E E E E E E E E E E E E
|--------------------------------------------------|
|---------4-------------4---------------7-----7----|
|-----6-----6---6---6-----6---6-----9-----9---9----|
|---6---6-----6-------6-----6-----9---9-----9-8----|
|-4---------------4-------------7------------------|
|--------------------------------------------------|

                  (Chorus) X 2
  E  E  E E E  E E  E  E  E E E  E E  E  E  E E E  E  E  E
|----------------------------------------------------------|
|----------------------------------------------------------|
|-4--4--4-4-4--4-4-----------------------------------------|
|-4--4--4-4-4--4-4--4--4--4-4-4--4-4--6--6--6-6-6--6--6--2-|
|-2--2--2-2-2--2-2--4--4--4-4-4--4-4--6--6--6-6-6--6--6--2-|
|-------------------2--2--2-2-2--2-2--4--4--4-4-4--4--4--0-|


                  (Ending Chorus) X 8
  E  E  E E E  E E  E  E  E E E  E E  E  E  E E E  E  E  E
|----------------------------------------------------------|
|----------------------------------------------------------|
|-6--6--6-6-6--6-6-----------------------------------------|
|-6--6--6-6-6--6-6--6--6--6-6-6--6-6--8--8--8-8-8--8--8--4-|
|-4--4--4-4-4--4-4--6--6--6-6-6--6-6--8--8--8-8-8--8--8--4-|
|-------------------4--4--4-4-4--4-4--6--6--6-6-6--6--6--2-|


  E  E E E  E  E
|-------------------|
|-------------------|
|-------------------|
|-4--4-4-4--4--4----|
|-4--4-4-4--4--4----|
|-2--2-2-2--2--2----|


Que te parecio? Calificalo con estrellas!!

Rating: 8.1/10 (419 votos)

Este fichero es trabajo propio de su transcriptor y representa su interpretación personal de la canción. El material contenido en esta página es para exclusivo uso privado, por lo que se prohibe su reproducción o retransmisión, así como su uso para fines comerciales.


Comentario de diegol.messi
esta muy facil namas le tienen q agarrar la onda y practicarla bien,cualquier duda ami mail:[email protected]
Deja tus comentarios:
Letras de canciones | Musica Independiente