Enviado por: xxblackxpinkxx
Agrandar Letra
Reducir Letra
Imprimir



Slash, The Godfather - El Padrino

 'The Godfather' / 'El Padrino', por Slash de los Guns N' Roses
__________________________________________________________________

|----------------------------------------------------------------|
|-15---14-15-16--15-15---------15---14-15-16--15-15--------------|
|----------------------15---------------------------14-----------|
|----------------------------------------------------------------|
|----------------------------------------------------------------|
|----------------------------------------------------------------|

|------------------------/\--------/\-------------/\-------------|
|-15---14-15-18--15-14-15-(15)---14-(14)---/\---14-(14)----------|
|----------------------------------------14-(14)--------14-------|
|----------------------------------------------------------------|
|----------------------------------------------------------------|
|----------------------------------------------------------------|

|----10-13-12-10-13-10-12-10-------------------------------------|
|-10-------------------------11-13-10----------------------------|
|----------------------------------------------------------------|
|----------------------------------------------------------------|
|----------------------------------------------------------------|
|----------------------------------------------------------------|

|----10-13-12-10-13-10-12-10-------------------------------------|
|-10-------------------------/10-9-8-----------------------------|
|----------------------------------------------------------------|
|----------------------------------------------------------------|
|----------------------------------------------------------------|
|----------------------------------------------------------------|

|-----------/-------6-9-9----------------------------------------|
|----6-10-10-----/8---------------13-11-10-13-11-10-10-----------|
|-/7---------------------------10--------------------------------|
|--------------------------/12---------------------------11-12---|
|----------------------------------------------------------------|
|----------------------------------------------------------------|

|-10-10-9-8-10/12-10-----------------------------------------10--|
|--------------------11-10----10-13-10-8----8-11-9-10-----10-----|
|----------------------------------------------------------------|
|----------------------------------------------------------------|
|----------------------------------------------------------------|
|----------------------------------------------------------------|

|-13^12^10--13^12^10--13^12^10---/---/--/--------------------------|
|------------------------------12--12--12-12-10-12-10-9-10-12-10-9-|
|------------------------------------------------------------------|
|------------------------------------------------------------------|
|------------------------------------------------------------------|
|------------------------------------------------------------------|

|-13-12-10-9-10-12-10-9----9-------------------------------------|
|-----------------------10---10-12-10-9----9----12---------------|
|---------------------------------------11---11----11-9----9-----|
|-------------------------------------------------------11---11--|
|----------------------------------------------------------------|
|----------------------------------------------------------------|

|-----------------------------9-10-------------------------------|
|--------13-11-10-13-11-10-10------------------------------------|
|-----10---------------------------------------------------------|
|-/12------------------------------------------------------------|
|----------------------------------------------------------------|
|----------------------------------------------------------------|
Aviso: Este fichero es trabajo propio de su transcriptor y representa su interpretación personal de la canción. El material contenido en esta página es para exclusivo uso privado, por lo que se prohibe su reproducción o retransmisión, así como su uso para fines comerciales.

Califica esta canción


Comentarios en Facebook