Acordes y tablaturas para guitarra

Acordes y Tablaturas
Usuario: Password:

Buscar:
Acordes y Tablaturas >> Letra A >> Acordes de Amaral >> te necesito
Tablatura de te necesito, Amaral

Te necesito

Amaral






Guitarra 1 (acústica) = Acordes
Guitarra 2 (eléctrica) = Riffs, solo, arreglos. (Limpia)

   C#
e|--------------|
B|----2-0-3v----|
G|---1----------|
D|--3-----------|
A|-4------------|
E|--------------|

C#         D
Oh ohh ohh ohh
       E               A
Cómo quieres que me aclare
           C#        D
Si aún soy demasiado joven
  E                  A
Para entender lo que siento
     C#         D           E           A
Pero no para jurarle al mismísimo ángel negro
       C#           D                E           A
Que si rompe la distancia que ahora mismo nos separa
     C#          D           E           A
Volveré para adorarle, le daría hasta mi alma
       C#         D             E             A     D2 A
Si trajera tu presencia a esta noche que no acaba


EStribillo

D     E   F#m   Riff 1
 Te  necesito   
D           E       F#m  Riff 2
 como a la luz del sol
D           E       F#m   Riff 3
 En este invierno frío
A                E  (Riff 2 de fondo)
 Pa' darme tu calor

====================================================
Segunda Guitarra (Electrica limpia)

Riff 1
e|-------------|
B|-------------|
G|-------------|
D|-4-2-4--2-0--|
A|-------------|
E|-------------|

Riff 2
e|-------------|
B|-------------|
G|--------2----|
D|-4-2-4----0--|
A|-------------|
E|-------------|

Riff 3
e|---------------0---2-0----------|
B|------------2----2-----2--------|
G|---2------2---------------------|
D|-0----2-4-----------------------|
A|--------------------------------|
E|--------------------------------|

Riff 4
    A         E
e|---5--5--5---4--4------|
B|--------------------5--|
G|--6--6--6---4--4--4----|
D|-----------------------|
A|-----------------------|
E|-----------------------|

=====================================================

C#         D
Oh ohh ohh ohh        
        E              A
Como quieres que te olvide
       C#                D
Si tu nombre está en el aire
        E             A
Y sopla entre mis recuerdos
      C#              D
Si ya sé que no eres libre,
       E            A
Si ya sé que yo no debo
     C#            D
Retenerte en mi memoria
        E          A
Así es como yo contemplo
       C#          D
Mi tormenta de tormento,
    E              A
Así es como yo te quiero.


Estribillo

   D     E   F#m
    Te  necesito  
e|-----------------------------|
B|-----------------------------|
G|-----------------------------|
D|-0-----2---4-----4-2-4--2----|
A|-----------------------------|
E|-----------------------------|
   D           E       F#m
    como a la luz del sol
e|--------------------------------------|
B|--------------------------------------|
G|--------------------------------2-----|
D|-0-----------2-------4----4-2-4-------|
A|--------------------------------------|
E|--------------------------------------|
   D           E       F#m
    En este invierno frío
e|----------------------0---2-0----------|
B|-------------------2----2-----2--------|
G|---2-------------2---------------------|
D|-0-----------2-4-----------------------|
A|---------------------------------------|
E|---------------------------------------|
A                E  (Riff 2 de fondo)
 Pa' darme tu calor

   D     E   F#m
    Te  necesito  
e|-----------------------------|
B|-----------------------------|
G|-----------------------------|
D|-0-----2---4-----4-2-4--2----|
A|-----------------------------|
E|-----------------------------|
   D           E       F#m
    como a la luz del sol
e|------------------------------------------|
B|----------------------------------2-------|
G|------------------------------2-4---4-2---|
D|-0-----------2-------4------4-------------|
A|------------------------------------------|
E|------------------------------------------|
   D          E    F#m
    Tus ojos, el abismo
e|--------------------0------|
B|--------------0--2----2----|
G|----2--------1----------2--|
D|-0----------2--------------|
A|---------------------------|
E|---------------------------|
        E          C#
 Donde muere mi razón...
e|------------------------|
B|----------5-------------|
G|--------4---4-----------|
D|------2-----------------|
A|------------------------|
E|------------------------|


C#         D
Oh ohh ohh ohh
        E              A
Cómo quieres que me aclare
C#       D
Oh ohh amor
        E              A
Cómo quieres que te olvide
e|-------------------------------|
B|-------------------------2/7v--|
G|-------------------------------|
D|-------------------------------|
A|-------------------------------|
E|-------------------------------|

Solo

e|--------------------|
B|-10-10-9-9-7-7/6----|
G|--------------------|
D|--------------------|
A|--------------------|
E|--------------------|

e|-----------------------|---------------------------------|
B|--------7-9-10-9-7-10v-|-12-12--10-10-9-7/5v--3p2-0------|
G|--6-7-9----------------|---------------------------------|
D|-----------------------|---------------------------------|
A|-----------------------|---------------------------------|
E|-----------------------|---------------------------------|

e|-5/4----------------------------|
B|----------0-2h3p2p0h2-----------|
G|------0-2--------------2p0------|
D|----------------------------4-2-|
A|--------------------------------|
E|--------------------------------|


Estribillo

   D     E   F#m
    Te  necesito  
e|-----------------------------|
B|-----------------------------|
G|-----------------------------|
D|-0-----2---4-----4-2-4--2----|
A|-----------------------------|
E|-----------------------------|
   D           E       F#m
    como a la luz del sol
e|--------------------------------------|
B|--------------------------------------|
G|--------------------------------2-----|
D|-0-----------2-------4----4-2-4-------|
A|--------------------------------------|
E|--------------------------------------|
   D           E       F#m
    En este invierno frío
e|----------------------0---2-0----------|
B|-------------------2----2-----2--------|
G|---2-------------2---------------------|
D|-0-----------2-4-----------------------|
A|---------------------------------------|
E|---------------------------------------|
A                E  (Riff 2 de fondo)
 Pa' darme tu calor

   D     E   F#m
    Te  necesito  
e|-----------------------------|
B|-----------------------------|
G|-----------------------------|
D|-0-----2---4-----4-2-4--2----|
A|-----------------------------|
E|-----------------------------|
   D           E       F#m
    como a la luz del sol
e|------------------------------------------|
B|----------------------------------2-------|
G|------------------------------2-4---4-2---|
D|-0-----------2-------4------4-------------|
A|------------------------------------------|
E|------------------------------------------|
   D          E    F#m
    Tus ojos, el abismo
e|--------------------0------|
B|--------------0--2----2----|
G|----2--------1----------2--|
D|-0----------2--------------|
A|---------------------------|
E|---------------------------|
        E          C#
 Donde muere mi razón...
e|------------------------|
B|----------5-------------|
G|--------4---4-----------|
D|------2-----------------|
A|------------------------|
E|------------------------|

  C#         D
  Oh ohh ohh ohh
e|-----------14vv--|
B|-6---------------|
G|-6---------------|
D|-6---------------|
A|-4---------------|
E|-----------------|                              _
       E   F#m           D     E   F#m             |     
  Te  necesito...         Te  necesito...          |
e|-----------------|-----14vv-------------------|  | 
B|-----17v-14vv----|-17v-------17v-14vv----17vv-|  |
G|-----------------|----------------------------|  |
D|-----------------|----------------------------|  |
A|-----------------|----------------------------|  | 
E|-----------------|----------------------------|  |
   D     E   F#m          D    E    D              |
    Te  necesito...                                |- (x2)
e|-14vv-----------------|-14vv------14vv----|      | 
B|-------17v-14vv---17v-|------17vv---------|      |
G|----------------------|-------------------|      |
D|----------------------|-------------------|      |
A|----------------------|-------------------|      |
E|----------------------|-------------------|      |
                                                  _|


Que te parecio? Calificalo con estrellas!!

Rating: 2.4/10 (34 votos)

Este fichero es trabajo propio de su transcriptor y representa su interpretación personal de la canción. El material contenido en esta página es para exclusivo uso privado, por lo que se prohibe su reproducción o retransmisión, así como su uso para fines comerciales.


Deja tus comentarios:

Letras de Amaral
Letras de canciones | Musica Independiente