Acordes y tablaturas para guitarra

Acordes y Tablaturas
Usuario: Password:

Buscar:
Acordes y Tablaturas >> Letra G >> Acordes de Guns N´ Roses >> Paradise City
Acordes de Paradise City, Guns N´ Roses

Paradise City

Guns N´ Roses






c.c5.f.f5.g.g5.
          "Paradise City", Guns N' Roses
         Album: 'Apetite For Destruction'

*Transcripto por Seba A.
*Email & MSN: [email protected] [por cualquier duda]
*18/10/07
*Sí, sacado de oído.
_________________________________________________________

INTRO:
[G] [C]  [F]-[C]-[G]



G
Take me down to the paradise city
           C
Where the grass is green
And the girls are pretty
F             C             G
Oh, won't you please take me home


G
Take me down to the paradise city
C
Where the grass is green
And the girls are pretty
F             C             G
Oh, won't you please take me home

RIFF DE SLASH mientras se tocan los acordes: [G5] [C5] [F5]-[C5]-[G5]

//Acá viene como un sonido de silbato que Axl toca y al instante:

e|---------------------------
B|---------------------------
G|---------------------------
D|--------------------------
A|------------------------1-
E|-3--1-2-3--1-2-3--3-1-3---
[repetir mucho, como 4 veces luego:]


e|--------------------------------------
B|--------------------------------------
G|--------------------------------------
D|--------------------------------------
A|------------------------1---3-4-3-1---
E|-3--1-2-3--1-2-3--3-1-3-------------3-
[repetir estas últimas dos tablaturas mucho, hasta el Estribillo]

'Just an urchin livin' under the street
I'm a hard case that's tough to beat
I'm your charity case
So by me somethin' to eat
I'll pay you at another time...!
Take it to the end of the line'

Rags to riches
Or so they say
You gotta
Keep pushin' for the fortune and fame
You know it's, it's all a gamble
When it's just a game
You treat it like a capitol crime
Everybody's doin' their time



G
Take me down to the paradise city
C
Where the grass is green
And the girls are pretty
F             C             G
Oh, won't you please take me home



Strapped in the chair of the city's gas chamber
Why I'm here, I can't quite remember
The surgoen general say's it's hazardous to breathe
I'd have another cigarette
But I can't see
Tell me who you're gonna believe...?!

G
Take me down to the paradise city
C
Where the grass is green
And the girls are pretty
F             C             G
TAKE ---     ME ----     HOME!
G
Take me down to the paradise city
C
Where the grass is green
And the girls are pretty
F             C             G
Oh, won't you please take me home

//se canta lo siguiente con los acordes://
[G5] [C5] [F5]-[C5]-[G5]
So far away
So far away
So far away
So far away



e|---------------------------
B|---------------------------
G|---------------------------
D|--------------------------
A|------------------------1-
E|-3--1-2-3--1-2-3--3-1-3---
[repetir mucho, como 4 veces luego:]


e|--------------------------------------
B|--------------------------------------
G|--------------------------------------
D|--------------------------------------
A|------------------------1---3-4-3-1---
E|-3--1-2-3--1-2-3--3-1-3-------------3-
[repetir estas últimas dos tablaturas mucho, hasta el Estribillo]

Capitain America's been torn apart
Now he's a court jester
With a broken heart
He said turn me around
And take me back to the start
I must be losing my mind
"Are you blind?!"
I've seen it all a million times

G
Take me down to the paradise city
C
Where the grass is green
And the girls are pretty
F             C             G
TAKE ---     ME ----     HOME!
G
Take me down to the paradise city
C
Where the grass is green
And the girls are pretty
F             C             G
Oh won't you take me home?

G
Take me down to the paradise city
C
Where the grass is green
And the girls are pretty
F             C             G
TAKE ---     ME ----     HOME!
G
Take me down to the paradise city
C
Where the grass is green
And the girls are pretty
F             C             G
Oh won't you take me home................?

//PAUSA//

//Parte agitada://
e|---------------------------------------------------------------------------
B|---------------------------------------------------4-----------------------
G|-------------------------3--5--3-4-5--3-4-5--3-4-5-------------3/5-3-------
D|--5--3-4-5--3-4-5--3-4-5------------------------------3--1-2-3-------[5]---
A|---------------------------------------------------------------------------
E|---------------------------------------------------------------------------
[repetir infinitamente]

"I want to go
I want to know
Oh, won't you please take me home

I want to see
Oh, look at me
Oh, won't you please take me home

Take me down to the paradise city
Where the grass is green
And the girls are pretty
Take me home
Take me down to the paradise city
Where the grass is green
And the girls are pretty
Oh, won't you please take me home

Take me down
Oh yeah
Beat me down
Oh, won't you please take me home

I want to see
Oh, look at me
Oh, won't you please take me home

I want to see
Boy, I'm gonna be mean
Oh, oh take me home

Take me down to the paradise city
Where the grass is green
And the girls are pretty
Oh, won't you please take me home

I want to go
I want to know
Oh, won't you please take me hooooooome
Baby" 

Que te parecio? Calificalo con estrellas!!

Rating: 8.5/10 (743 votos)

Este fichero es trabajo propio de su transcriptor y representa su interpretación personal de la canción. El material contenido en esta página es para exclusivo uso privado, por lo que se prohibe su reproducción o retransmisión, así como su uso para fines comerciales.


Deja tus comentarios:

Letras de Guns N´ Roses
Letras de canciones | Musica Independiente