Acordes y tablaturas para guitarra

Acordes y Tablaturas
Usuario: Password:

Buscar:
Acordes y Tablaturas >> Letra L >> Acordes de LIBIDO >> Libido
Tablatura de Libido, LIBIDO

Libido

LIBIDO






INTRO:

E5 G5 C5 B5

ARPEGIO (VERSO):

   Em         G           C             B
e|-----------------------------------------------------
b|-----------------------------------------------------
g|-------0-----------0------------3------------2-------    (x3)
D|-----2---2-------0---0--------2---2--------1---1-----
A|----------------------------3------------2-----------
E|---0-----------3-------------------------------------

VERSO:
 
Em    G         C        B           Em      G  C  B    
 Nos vimos de nuevo, pensaste en volver a mí            
Em    G        C        B            Em       G         
 Me tienes contigo, no sabes lo que aprendí   

PRe|-CORO
                               
C      B       Em      G                           
 A llorar sin lágrimas                             
C       B           Em      G                      
 a no creer en los sueños                          
C          B             Em           G     C      
 a no envolverme en tus besos, ni en tus caricias  
   B                 Em    G                       
 porque todas son mentiras     
 
CORO:
                              
C5    B5           E5       G5                     
 Y te quito las ropas                           
C5    B5               E5       G5                 
 y yo entro en tu cuerpo                        
C5      B5        E5         G5           C5        
 y juntando las almas, tu cuerpo y el mío       
        B5       E5       G5   C5   B5              
 se envuelven en libidoooooo  

VERSO:

Em   G       C                                
 Terminó tu sueño                             
     B         Em     G  C B              
 de ser la dueña de mí                        
Em   G         C                              
 Empieza tu infierno                          
      B           Em       G  C  B            
 tu premio a lo que aprendí 


PRe|-CORO:

                                
C      B       Em      G        
 A llorar sin lágrimas                          
C       B           Em      G                   
 a no creer en los sueños                       
C          B             Em           G     C   
 a no envolverme en tus besos, ni en tus caricias   
   B                 Em    G                        
 porque todas son mentiras     


CORO:
                               
C5    B5           E5       G5 
 Y te quito las ropas                        
C5    B5               E5       G5           
 y yo entro en tu cuerpo                     
C5    B5        E5         G5           C5   
 y juntando las almas, tu cuerpo y el mío    
        B5       E5       G5   C5   B5   C5  B5  E5    
 se envuelven en libidoooooo   


SOLO:

e|------------------------------------------------------------------------
b|-----8-10-10b-10-8-8h10-8--------------8-10-10~-10-8-10-8-----8-----11b-
g|-7-9-----------------------7s9~~---7-9--------------------9-9---9-9-----
D|------------------------------------------------------------------------
A|------------------------------------------------------------------------
E|------------------------------------------------------------------------

e|-12~---------12~----------12~-------
b|-----12~-12~-----12~-12~------12~---
g|------------------------------------
D|------------------------------------
A|------------------------------------
E|------------------------------------

e|-----12~-----12~-----12~-----12~--12~---------12~---------12~------12~~-
b|-10~-----10~-----10~-----10~----------12~-12~-----12~-12~-----12~--12~~-
g|------------------------------------------------------------------------
D|------------------------------------------------------------------------
A|------------------------------------------------------------------------
E|------------------------------------------------------------------------


CORO (2x)


ARPEGIO 2


e|----------------------------------------------------------------------
b|---8~------8~------8~---10~--8~-------8~------8~------8~---7~--8~--7~-
g|-9~--9~--9~--9~--9~--9~----9~--9~---9~--9~--9~--9~--9~--9~------------
D|----------------------------------------------------------------------
A|----------------------------------------------------------------------
E|----------------------------------------------------------------------

e|-----------------------7~------------------------------------------
b|---8~------8~------8~----8~--8~-----8~------8~------8~--7~-8~-7~~--
g|-9~--9~--9~--9~--9~--9~----9~-----9~--9~--9~--9~—-9~--9~-----------
D|-------------------------------------------------------------------
A|-------------------------------------------------------------------
E|-------------------------------------------------------------------

ESTE ARPEGIO VA COMO BASE EN EL VERSO QUE VIENE A CONTINUACION


 No quiero verte jamás con él
 El odio en mi alma se pone de pie
 con un arma en la mano no sé que hacer

Em    G      C     Bm
Oooooooooooooooooooohhhhhh
Em    G      C     Bm
Oooooooooooooooooooohhhhhh
 C5       B5
Ooooooooooooooohhhhhhh
 C5       B5
Ooooooooooooooohhhhhhh    


Que te parecio? Calificalo con estrellas!!

Rating: 7.5/10 (97 votos)

Este fichero es trabajo propio de su transcriptor y representa su interpretación personal de la canción. El material contenido en esta página es para exclusivo uso privado, por lo que se prohibe su reproducción o retransmisión, así como su uso para fines comerciales.


Comentario de sheilitap
http://cifraclub.terra.com.br/cifras/libido/libido-wzssm.html
Deja tus comentarios:

Letras de LIBIDO
Letras de canciones | Musica Independiente