Enviado por: luchoooo
Agrandar Letra
Reducir Letra
Imprimir

Acordes:
½ tono
| +0 |
½ tono
||
Volver





AC/DC, back in black

 --------------------------------------3--0-------------------------
--------------------------------------------3--0-------------------
-------------------------------------------------3h0---------------
-------------7---7--7----7----7---7--------------------------------
--2----------5---5--5----4----4---4--------------------------------
--0----------0---0--0----0----0---0--------------------------------


-------------------------------------------------------------------
-------------------------------------------------------------------
-------------------------------------------------------------------
-------7---7---7-----7----7---7------------------------------------
--2----5---5---5-----4----4---4---2---2---2---2---------------------
--0----0---0---0-----0----0---0-----3---4---5---6------------------

                  eso se repita varias veces 
Aviso: Este fichero es trabajo propio de su transcriptor y representa su interpretación personal de la canción. El material contenido en esta página es para exclusivo uso privado, por lo que se prohibe su reproducción o retransmisión, así como su uso para fines comerciales.

Califica esta canción


Comentarios en Facebook