Acordes y tablaturas para guitarra

Acordes y Tablaturas
Usuario: Password:

Buscar:
Acordes y Tablaturas >> Letra L >> Acordes de Los payasonicos >> tu forma de ser
Tablatura de tu forma de ser, Los payasonicos

Tu forma de ser

Los payasonicos






1-11-11-11----------------8-9-11------15--15-15-13-13--10s11-11-9-9---             
 2-----------9-9--9-9-9-11--------8-8--16--16-16-14-14--10s11-11-11-11- 
 3---------------------------------------------------------------------
 4---------------------------------------------------------------------
 5---------------------------------------------------------------------
 6---------------------------------------------------------------------

 1--------9--11-13---11-9-8--8-8-8-11-9-8s9s8--8-8-8------8--8-8-8--
 2-11-13--11-13-14-----------------------------------11-9-----------
 3-12-13------------------------------------------------------------
 4------------------------------------------------------------------
 5------------------------------------------------------------------
 6------------------------------------------------------------------

 1-11-9-8s9s9-----11-----11-----11-----11--11--11-11--9--9---8--9--8-6--
 2--------------9------9------9------9-----13--13-13--11-11--9--11-9-8--
 3------------8------8------8------8------------------------------------
 4----------------------------------------------------------------------
 5----------------------------------------------------------------------
 6 ---------------------------------------------------------------------




 A				            C#m
Te vi llegar del brazo de un ombligo cuando entraste al bar

 		         Bm
y te caíste al piso me tiraste una chewa  me tiraste a Raton

        E7
y estallaron los vidrios de mi corazón.

   A				            C#m
Te vi bailar brillando con tu ausencia sin sentir llevar

 			     Bm
chocando con las mesas te burlaste de todos te reíste de mi

       E7
tus ombligas se escaparon de ti.

	         A
Y a mi me volvió loco tu forma de ser

 	         C#m
y a mi me volvio loco tu forma de ser

      Bm
tu egoísmo y tu soledad

         E7
son estrellas en la noche de la mediocridad.

	   A
Me vuelve loco tu forma de ser

 	        C#m
a mi me volvió loco tu forma de ser

     Bm
tu egoísmo y tu soledad

     E7
son joyas en el barco de la mediocridad.

(requinto)


   A				      C#m
Viniste a mí tomaste mi cereza me sonreíste así

 			   Bm
nadando en tu demencia no sabia que hacer


te trate de besar me pegaste un sopaco

        E7
y te pusiste a llorar

	         A
Me vuelve loco tu forma de ser

 	         C#m
y a mi me volvio loco tu forma de ser

      Bm
tu egoísmo y tu soledad

         E7
son estrellas en la noche de la mediocridad.

	   A
Me vuelve loco tu forma de ser

 	        C#m
a mi me volvió loco tu forma de ser

     Bm
tu egoísmo y tu soledad

     E7
son joyas en el barco de la mediocridad.



torito zorrillito, zorrillito  ahu ahu ahu
a mi volvio loco tu forma de ser
tu, Tu eres Chucky
que oso.


Que te parecio? Calificalo con estrellas!!

Rating: 6.6/10 (106 votos)

Este fichero es trabajo propio de su transcriptor y representa su interpretación personal de la canción. El material contenido en esta página es para exclusivo uso privado, por lo que se prohibe su reproducción o retransmisión, así como su uso para fines comerciales.


Deja tus comentarios:
Letras de canciones | Musica Independiente