Enviado por: abel01
Agrandar Letra
Reducir Letra
Imprimir

Acordes:
½ tono
| +0 |
½ tono
||
Volver

Otras Versiones de Pasos de gigante:




Bacilos, Pasos de gigante

 Esta es mi primera canción que subo espero que les gusten, para mi opinión esta muy bien ya ustedes sabran sacarla.

Ritmo pop tropical:
Apagado
rasgueo hacia arriba
rasgueo hacia arriba
apagado
rasgueo hacia abajo

se repiten dos veces los acordes, los apagados tienen que ir con la batería intenten que suene la batería cuando esten apagando.

INTRO

El intro se hace apagando las notas.

e|--------------------------------------------------------------|
B|----4----4----4--1----4--1-----2---2-----4----4---------------|
G|-----4----4--------0-------0----3---3-----4----4--------------|
D|------4----4---------------------4---4-----4----4-------------|
A|--------------------------------------------------------------|
E|--------------------------------------------------------------|

Aqui ya viene con el ritmo si quieren siguen tocando el punteo o tocan el ritmo

         B           E             F#         B
e|--------------------------------------------------------------|
B|----4----4----4--1----4--1-----2---2-----4----4---------------|
G|-----4----4--------0-------0----3---3-----4----4--------------|
D|------4----4---------------------4---4-----4----4-------------|
A|--------------------------------------------------------------|
E|--------------------------------------------------------------|

B
No puedo reir no puedo llorar
     E
no puedo dejarte de recordar
     F#                           B
no puedo decirte nada que tu no sepas
    G#m                           C#m
tan solo puedo quedarme como un idiota
                            F#
pensando en cosas que me provoca
                           B
hacer contigo en islas perdidas


B
no puedo gritar no puedo exigir
     E
no puedo contarte lo que senti
     F#                              B
no puedo decirte nada tu estas tan lejos
  G#m                              C#m
y tu que no sabes nada y lo sabes todo
                           F#
que me derrites de tantos modos
                          E         F
dime pa donde vas con mi vidaaa ay ...


CORO
           E-F#              B-G#m
carito el corazón me queda grande
                    E              F#          B
cuando yo pienso en ti yo siento pasos de gigante
               E - F#       G#m
carito esta canción es importante
                   E                 F#          B
porque cuando la canto yo juro que estas ahi delante
                   E                 F#          B
porque cuando la canto yo juro que estas ahi delante


     B
se fue complicando la situacion
      E
y no hay que olvidarse que al corazón
     F#                           B
le puedes decir de todo menos mentiras
    G#m
tu ibas para alla yo iba para aca
   C#m
y fue tan bonito verte cruzar
     F#                         B
al menos por un ratito por mi camino


CORO
           E - F#              B
carito el corazón me queda grande
                    E              F#          B
cuando yo pienso en ti yo siento pasos de gigante
               E - F#       G#m
carito esta canción es importante
                   E - F#                          B
porque cuando la canto yo juro que estas ahi delante
                   E - F#                          B
porque cuando la canto yo juro que estas ahi delante
   B                            G#m       F#     cortes: E
Ahí delante, ahí delante, ahí delante, estás ahí delante...


Este es el punteo que viene con la trompeta si quieren lo hacen si no hacen los acordes.

                 E - F#                 G#m
e|--------------------------------------------------------------|
B|---------------2--0-------------------------------------------|
G|-------1--4---3-----------------------------------------------|
D|-----2-------4------------------------------------------------|
A|--------------------------------------------------------------|
E|--------------------------------------------------------------|


E-F#
G#m
Lalalalalalalaaa
E-F#
G#m
Lalalalalalalaaa
E-F#m
Tú ibas para allá, yo iba para acá
G#m
Lalalalalalalaaa
E-F#
Y fue tan bonito verte cruzar
G#m
Lalalalalalalaaa
E-F#m
Al menos por un ratito por mi caminooo

CORTES ESTOS SON ACORDES PERO ALGUNOS NO SE COMO SE LLAMAN ASI QUE SE LOS ESCRIBO, TODOS SON CON CEJILLA Y SE RASGUEA UAN VEZ HACIA ABAJO:
         C#m  B
e|-7--6---4---2-------------------------------------------------|
B|-9--8---6---4-------------------------------------------------|
G|-9--8---6---4-------------------------------------------------|
D|-8--7---5---4-------------------------------------------------|
A|-7--6---4---2-------------------------------------------------|
E|-x--x---x---x-------------------------------------------------|


CORO
           E - F#              B
carito el corazón me queda grande
                    E              F#          B
cuando yo pienso en ti yo siento pasos de gigante
               E - F#       G#m
carito esta canción es importante
                   E - F#                          B
porque cuando la canto yo juro que estas ahi delante
                  E - F#            G#m
Porque cuando la canto yo juro yo juro...

TODO TERMINA EN  E - F#m G#m 

ESPERO QUE LES HAYA GUSTADO

|ABEL| 
Aviso: Este fichero es trabajo propio de su transcriptor y representa su interpretación personal de la canción. El material contenido en esta página es para exclusivo uso privado, por lo que se prohibe su reproducción o retransmisión, así como su uso para fines comerciales.
comentario del colaborador: los acordes se repiten

Califica esta canción


Comentarios en Facebook