Enviado por: moya_06
Agrandar Letra
Reducir Letra
Imprimir



AEROSMITH, dream on

e|---3------3------2------2-------|---3------3------2------2----|
B|---5------5------3------3-------|---5------5------1------1----|
G|------4-------4------4------4---|------4-------4------4-----4-|
D|--------------------------------|-----------------------------|
A|--------------------------------|-----------------------------|
E|---0----------------------------|---0-------------------------|

e|---3------3------5------5-------|---7------7------(7)---------|
B|---5------5------5------5-------|---5------5------(5)---------|  .
G|------4-------4------4------4---|------4-------4--------------|
D|--------------------------------|-----------------------------|  .
A|--------------------------------|-----------------------------|
E|---0----------------------------|---0-------------------------|

e|---7------7---7\5------3----5---|---7------7------7---5---5---|
B|---5------5---5\5------5----5---|---8------8------7---5---5---|
G|----------------4---------------|-----------------------------|
D|--------------------------------|-----------------------------|
A|--------------------------------|---0-------------------------|
E|---0----------------------------|-----------------------------|

e|---------------------------|
B|--1--0--1--0--1--0--1--0---|
G|---------------------------|
D|--0-----------1------------|
A|---------------------------|
E|---------------------------|

e|--------------------------------------------|
B|-1p0----0h1/4h5h7---5h7h8---7h8/10---8h10p8-|
G|------2-------------------------------------|
D|--------------------------------------------|
A|--------------------------------------------|
E|-0------------------------------------------|

e|--------------------------------------------|
B|-7h8p7\5--5h7p5\3--3h5p3\1--1h0p1/12~~~(12)-|
G|--------------------------------------------|
D|--------------------------------------------|
A|--------------------------------------------|
Aviso: Este fichero es trabajo propio de su transcriptor y representa su interpretación personal de la canción. El material contenido en esta página es para exclusivo uso privado, por lo que se prohibe su reproducción o retransmisión, así como su uso para fines comerciales.

Califica esta canción


Comentarios en Facebook