Acordes y tablaturas para guitarra

Acordes y Tablaturas
Usuario: Password:

Buscar:
Acordes y Tablaturas >> Letra A >> Acordes de AC/DC >> hell bells
Tablatura de hell bells, AC/DC

Hell bells

AC/DC






Hells Bells

e|-------------------------|------------------------|------------------------|
B|-------------------------|------------------------|------------------------|
G|-----9-----7----------5--|----------7-------------|----9-----7----------5--|
D|--------7-------7--------|----5----------7--------|-------7-------7--------|
A|--0----------------0-----|-------0----------0--0--|------------------0-----|
E|-------------------------|------------------------|------------------------|

|------------------------|------------------------|
|------------------------|------------------------|
|----9-----7----------5--|----------7----------2--|
|-------7-------7--------|----5-----7----5--5--2--|
|------------------0-----|-------0-------3--2--0--|
|------------------------|------------------------|


|------------------------|------------------------|
|------------------------|------------------------|
|----9-----7----------5--|----------7-------------|
|-------7-------7--------|----5----------7--------|
|------------------0-----|-------0----------0--0--|
|------------------------|------------------------|

|---------------------3--|----3--2---------------|
|---------------------3--|----3--3---------------|
|----9-----7----------0--|----0--2---------------|
|-------7-------7-----0--|----0--0----5--5--2----|
|------------------0--x--|----x--0----3--2--0----|
|---------------------3--|----3------------------|

|------------------------|---------------------|
|------------------------|---------------------|
|----9--7--9----7--5--7--|---------------------|
|----7--7--7----5--5--7--|-----------5----5----|
|------------------------|--------0--3----2----|
|------------------------|---------------------|

|-------------------------|---------------------|
|-------------------------|---------------------|
|-----9--7--9----7--5--7--|---------------------|
|-----7--7--7----5--5--7--|-----------5----5----|
|--0----------------------|--------0--3----2----|
|-------------------------|---------------------|

|-------------------------|------------------3----|-------------------------|
|-----3--3--3----3--3--3--|----3--3----------3----|-----3--3--3----3--3--3--|
|-----2--0--2----2--0--2--|----2--2-----5----0----|-----2--0--2----2--0--2--|
|--0----------------------|----------2--5----0----|--0----------------------|
|-------------------------|----------0--3----x----|-------------------------|
|-------------------------|------------------3----|-------------------------|

|------------------3----|------------------------|-----------------------|
|----3--3----------3----|------------------------|-----------------------|
|----2--2-----5----4----|------------------------|-------------7---------|
|----------2--5----5----|----9--7--9----9--7--9--|----9--9--9--7----7----|
|----------0--3----5----|----7--7--7----7--7--7--|----7--7--7--5----7----|
|------------------3----|------------------------|------------------5----|

|------------------------|-------------3----3----|
|------------------------|-------------3----3----|
|------------------------|-------------0----0----|
|----9--7--9----9--7--9--|----9--9--9--0----0----|
|----7--7--7----7--7--7--|----7--7--7--x----x----|
|------------------------|-------------3----3----|


Que te parecio? Calificalo con estrellas!!

Rating: 8.3/10 (1011 votos)

Este fichero es trabajo propio de su transcriptor y representa su interpretación personal de la canción. El material contenido en esta página es para exclusivo uso privado, por lo que se prohibe su reproducción o retransmisión, así como su uso para fines comerciales.


Comentario de cobos
esta bien perrona
Deja tus comentarios:

Letras de AC/DC
Letras de canciones | Musica Independiente