Acordes y tablaturas para guitarra

Acordes y Tablaturas
Usuario: Password:

Buscar:
Acordes y Tablaturas >> Letra A >> Acordes de Amaral >> Dias de verano
Tablatura de Dias de verano, Amaral

Dias de verano

Amaral






Intro:FA#m RE FA#m DO#7 FA#m RE MI RE DO#7

E------------------|------------------|------------------|
B------------------|------------------|------------------|
G------------------|------------------|------------------|
D---6-4-2-0--------|-----2-4-2--------|---6-4-2-0--------|
A-4---------4------|-5-5-------5-4----|-4---------4------|
E------------------|------------------|------------------|

E---------------------------|------------------|
B---------------------------|------------------|
G---------------------------|------------------|
D-----2-4-2---2-2-4-6-4-2---|-2-6-4-2-0--------|
A-5-5-------5------------5--|-----------4------|
E---------------------------|------------------|


RE        MI        LA  SIm              DO#7
No quedan días de verano para pedirte perdón
RE     MI          LA  SIm                  DO#7
Para borrar del “pasao” el daño que te hice yo   D---6-4-2-0--4--2----|
                                                 A-4----------------4-|
RE        MI      LA  SIm               DO#7
Sin besos de despedida y sin palabras bonitas
RE        MI         LA  SIm              MI RE DO#7
Porque te miro a los ojos y no me sale la voz

   RE                  MI                  FA#m  DO#m
Si pienso en ti siento que esta vida no es justa
   RE                   MI                DO#m DO#7
Si pienso en ti y en la luz de esa mirada tuya

RE        MI        LA    SIm                 DO#7
No quedan días de verano, el viento se los llevó
RE       MI       LA     SIm               MI
Un cielo de nubes negras cubría el ultimo adiós
RE                DO#7
Y fue sentir de repente tu ausencia
SIm                DO#7
Como un eclipse de sol
SIm                  MI
¿Por qué no vas a mi vera?

   RE                  MI                  FA#m  DO#m
Si pienso en ti siento que esta vida no es justa
   RE                   MI                DO#m
Si pienso en ti y en la luz de esa mirada tuya
RE  MI        DO#m DO#7
De esa mirada tuya

Repite intro: FA#m RE FA#m DO#7 FA#m RE MI RE DO#7

E------------------|------------------|------------------|
B------------------|------------------|------------------|
G------------------|------------------|------------------|
D---6-4-2-0--------|-----2-4-2--------|---6-4-2-0--------|
A-4---------4------|-5-5-------5-4----|-4---------4------|
E------------------|------------------|------------------|

E---------------------------|------------------|
B---------------------------|------------------|
G---------------------------|------------------|
D-----2-4-2---2-2-4-6-4-2---|-2-6-4-2-0--------|
A-5-5-------5------------5--|-----------4------|
E---------------------------|------------------|




RE                   LA
Desde esos días de verano
DO#7             RE        LA  DO#7
Vivo en el reino de la soledad
RE            MI          FA#m  DO#m
Nunca vas a saber como me siento
RE              MI            DO#m  DO#7
Nadie va a adivinar como te recuerdo

   RE                  MI                  FA#m  DO#m
Si pienso en ti siento que esta vida no es justa
RE            MI                 DO#m
Si pienso en ti____ y esa mirada tuya
RE MI      DO#m  DO#7
Esa mirada tuya        D---6-4-2-0-----|
                       A-4---------4---|
FA#m RE                    LA  DO#7
       No quedan días de verano     x4

Final: Sobre acorde Fa#m

E----------------|-------------|---2-^----|
B--------2-------|-------2-----|---2-|----|
G------2---2---2-|-----2---2---|---2-|----|
D----4-------4---|---4-------4-|---4-|----|
A--4-------------|-4-----------|---4-|----|
E----------------|-------------|---2-|----|

Fuente original: LaCuerda
Colaborador original: Alberto [[email protected]]

Que te parecio? Calificalo con estrellas!!

Rating: 6.0/10 (80 votos)

Este fichero es trabajo propio de su transcriptor y representa su interpretación personal de la canción. El material contenido en esta página es para exclusivo uso privado, por lo que se prohibe su reproducción o retransmisión, así como su uso para fines comerciales.


Deja tus comentarios:

Letras de Amaral
Letras de canciones | Musica Independiente