Acordes y tablaturas para guitarra

Acordes y Tablaturas
Usuario: Password:

Buscar:
Acordes y Tablaturas >> Letra v >> Acordes de vicente fernandez >> mujeres divinas
Acordes de mujeres divinas, vicente fernandez

Mujeres divinas

Vicente fernandez






am.b7.c.d.d7.e.e7.em.g.
 MUJERES DIVINAS

|-----3--2--0---2-2--5-5----------------3-5-7----3--2--0---10-10--14-14--10-10---8-8--7---3-5-7-
|-----5--3--1---3-3--7-7--7-7--5-5--3------------5--3--1----------------------------------------
|-------------------------7-7--5-5--4---4-5-7--------------11-11--14-14--11-11---9-9--7---4-5-7-

Em            E7         Am
Hablando de mujeres y traiciones
     D                         G
se fueron consumiendo las botellas
Em                             Am
pidieron que cantara mis canciones
B7                                 Em
y yo cante unas dos en contra de ellas
                   E7            Am
De pronto que se acerca un caballero
    D                         G
su pelo ya pintaba algunas canas
Em                       Am
me dijo le suplico companero
                      B7             Em
que no hable en mi precencia de las damas.

     D7                    G
Le dije que nosotros simplemente
    D7                     G
hablamos de lo mal que nos pagaron
          B7                  Em
que  si alguien  opinaba diferente
C             B7            Em
seria porque jamas lo tracionaron.

|-----3--2--0---2-2--5-5----------------3-5-7----3--2--0---10-10--14-14--10-10---8-8--7---3-5-7-
|-----5--3--1---3-3--7-7--7-7--5-5--3------------5--3--1----------------------------------------
|-------------------------7-7--5-5--4---4-5-7--------------11-11--14-14--11-11---9-9--7---4-5-7-

               E7           Am
Me dije yo soy uno de los seres
     D7                     G
que mas ha soportado los fracasos
     Em	 	            Am
y siempre me dejaron las mujeres
     B7                         Em
llorando y con el alma echa pedazos.

                 E7           Am
Mas nunca les reprocho mis heridas
     D7                        G
se tiene que sufrir cuando se ama
     E                        Am
las horas mas hermosas de mi vida
     B7                       Em
las eh pasado al lado de una dama.


D7                           G
Pudieramaos morir en las cantinas
  D7                      G
y nunca lograriamos olvidarlas
   B7                        Em
mujeres, oh mujeres tan divinas
    C          B7              Em
no queda otro camino que adorarlas
  B7                        Em
mujeres, oh mujeres tan divinas
     C          B7            Em
no queda otro camino que adorarlas.

	        G  B7 Em G  B7 Em     B7   Em
	|----7-7-7-5-3---3-3-3-2-0-----2----0-----
	|----8-8-8-7-5-----------------0----0-----
	|----------------4-4-4-2-0-----2----0-----
	|------------------------------1----2-----
	|------------------------------2----2-----
 

Que te parecio? Calificalo con estrellas!!

Rating: 8.2/10 (405 votos)

Este fichero es trabajo propio de su transcriptor y representa su interpretación personal de la canción. El material contenido en esta página es para exclusivo uso privado, por lo que se prohibe su reproducción o retransmisión, así como su uso para fines comerciales.


Deja tus comentarios:
Letras de canciones | Musica Independiente