Acordes y tablaturas para guitarra

Acordes y Tablaturas
Usuario: Password:

Buscar:
Acordes y Tablaturas >> Letra l >> Acordes de los indios tacunau >> quiero ser tu sombra
Tablatura de quiero ser tu sombra, los indios tacunau

Quiero ser tu sombra

Los indios tacunau






E|-------------12-----12---12-----12-14-12--11-10-11--|         |
B|--9-10-9-8-9------9----9------9---------------------|         |
G|----------------------------------------------------|         |
                                                                |
E|-------------11-----11---11-----11-12-11--9-8-9-----|         |
B|--9-10-9-8-9------9----9------9---------------------|         |
G|----------------------------------------------------|         |
                                                                | x2
E|-------------9--8-9-8-7/8/6--6-7-9-7--5-4-5---------|         |
B|--9-10-9-8-9----------------------------------------|         |
G|----------------------------------------------------|         |
                                                                |
                                                                |
E|-5-4-------------------4-5-5-(4)-------------------4-4-9-|    |
B|-----7-5-4-------4-5-7-----------7-5-5-(4)-----5-5-------|    |
G|-----------6-5-6---------------------------6-6-----------|    |
                                                               _|

E|----16--16-16-14----16-14----16-14----16-14----14-12----14-12-|
B|--------------------------------------------------------------|
G|-13--------------13-------13-------13-------13-------13-------|

---14-12----14-12----12-11----12-11-----12-11-----12-11-----11-9|
----------------------------9---------9---------9---------9-----|
13-------13--------13-------------------------------------------|

---11-9------11-9-----11-9-----9-7-----9-7-----9-7-----9-7-7/5--5-4-5----|
-9--------9---------9--------9-------9-------9-------9-------------------|
-------------------------------------------------------------------------|


E|-5-4-------------------4-5-5-(4)-------------------4-4-9-|
B|-----7-5-4-------4-5-7-----------7-5-5-(4)-----5-5-------|
G|-----------6-5-6---------------------------6-6-----------|


otra vez mas rapído...

E|----16--16-16-14----16-14----16-14----16-14----14-12----14-12-|
B|--------------------------------------------------------------|
G|-13--------------13-------13-------13-------13-------13-------|

---14-12----14-12----12-11----12-11-----12-11-----12-11-----11-9|
----------------------------9---------9---------9---------9-----|
13-------13--------13-------------------------------------------|

---11-9------11-9-----11-9-----9-7-----9-7-----9-7-----9-7-7/5--5-4-5----|
-9--------9---------9--------9-------9-------9-------9-------------------|
-------------------------------------------------------------------------|


E|-5-4-------------------4-5-5-(4)-------------------4-4-9-|
B|-----7-5-4-------4-5-7-----------7-5-5-(4)-----5-5-------|
G|-----------6-5-6---------------------------6-6-----------|


E|-------------12-----12---12-----12-14-12--11-10-11--|
B|--9-10-9-8-9------9----9------9---------------------|
G|----------------------------------------------------|

E|-------------11-----11---11-----11-12-11--9-8-9--|
B|--9-10-9-8-9------9----9------9------------------|
G|-------------------------------------------------|


E|-------------9--8-9-8-7/8/6--6-7-9-7--5-4-5---------|
B|--9-10-9-8-9----------------------------------------|
G|----------------------------------------------------|


E|-5-4-------------------4-5-5-(4)-------------------4-4-9-|
B|-----7-5-4-------4-5-7-----------7-5-5-(4)-----5-5-------|
G|-----------6-5-6---------------------------6-6-----------|



E|-------------12-----12/16--16-16-14-12-12-11-14-12-11-10-11-|
B|--9-10-9-8-9------9-----------------------------------------|
G|------------------------------------------------------------|


------------11----11/14-14-14-12-11-11-9-12-11-9-8-9-|
-9-10-9-8-9-----9------------------------------------|
-----------------------------------------------------|


E|--------------9--8-9-8-7/8/6--6-7-9-7--5-4-5-------|
B|-8-9-10-9-8-9--------------------------------------|
G|---------------------------------------------------|


lo siguiente se repite tres veces y en velocidad progresiva


E|----16--16-16-14----16-14----16-14----16-14----14-12----14-12-|
B|--------------------------------------------------------------|
G|-13--------------13-------13-------13-------13-------13-------|

---14-12----14-12----12-11----12-11-----12-11-----12-11-----11-9|
----------------------------9---------9---------9---------9-----|
13-------13--------13-------------------------------------------|

---11-9------11-9-----11-9-----9-7-----9-7-----9-7-----9-7-7/5--5-4-5----|
-9--------9---------9--------9-------9-------9-------9-------------------|
-------------------------------------------------------------------------|

E|-5-4-------------------4-5-5-(4)-------------------4-4-9-|
B|-----7-5-4-------4-5-7-----------7-5-5-(4)-----5-5-------|
G|-----------6-5-6---------------------------6-6-----------|


Que te parecio? Calificalo con estrellas!!

Rating: 7.0/10 (255 votos)

Este fichero es trabajo propio de su transcriptor y representa su interpretación personal de la canción. El material contenido en esta página es para exclusivo uso privado, por lo que se prohibe su reproducción o retransmisión, así como su uso para fines comerciales.


Deja tus comentarios:
Letras de canciones | Musica Independiente