Enviado por: gugu
Agrandar Letra
Reducir Letra
Imprimir






Bobby Capo, Piel Canela

E--------------------------------------------------------------
A--------------------------------------------------------------
D--------------------------------------------------------------
G--2-2-2-3-4-----2-2-2-3-4-------------------------------------
B----------------------------3---------------------------------
E------------3-0-----------2-----------------------------------

E--------------------------------------------------------------
A--------------------------------------------------------------
D--------------------------------------------------------------
G--2-2-2-3-4----------------2-4--------------------------------
B-------------------------------2-3----------------------------
E-------------3-0-0-5-3-2-0------------------------------------

E--------------------------------------------------------------
A--------------------------------------------------------------
D--------------------------------------------------------------
G--2-2---------------------2-2---------------------------------
B------0-0-0-0-----------3-----0-0-0-0-------------------------
E--------------2-2-2-2-0---------------2-2-2-2-5---------------

E---------------------------------------------------------------
A---------------------------------------------------------------
D---------------------------------------------------------------
G---------------------------------------------------------------
B----------------3-3-2-2-0-----------3-3-0-2-3------------------
E-3-2-3-2--2-0-0-----------1-0-1-0-0-----------0----------------

Aviso: Este fichero es trabajo propio de su transcriptor y representa su interpretación personal de la canción. El material contenido en esta página es para exclusivo uso privado, por lo que se prohibe su reproducción o retransmisión, así como su uso para fines comerciales.
comentario del colaborador: ESTA CANCION FUE LA PRIMERA QUE APRENDI EN REQUINTO.GRAX ATTE GUGU FIGUEROA REYES

Califica esta canción


Comentarios en Facebook