Enviado por: LordAgus
Agrandar Letra
Reducir Letra
Imprimir






The Police, Every Breath You Take

Este es el solo:

1---10-10-9-7---|--10-10-9-7----|--------9-10----|
2-------------10|------------10-|--10-10------10-|
3---------------|---------------|----------------|
4---------------|---------------|----------------|
5---------------|---------------|----------------|
6---------------|---------------|----------------|

1-------9-10------|-------10-9----|-------9-------|
2-10-10------10---|-10-10------12-|-12-10---10-10-|
Aviso: Este fichero es trabajo propio de su transcriptor y representa su interpretación personal de la canción. El material contenido en esta página es para exclusivo uso privado, por lo que se prohibe su reproducción o retransmisión, así como su uso para fines comerciales.

Califica esta canción


Comentarios en Facebook