Acordes y tablaturas para guitarra

Acordes y Tablaturas
Usuario: Password:

Buscar:
Acordes y Tablaturas >> Letra A >> Acordes de AC/DC >> YOU SHOOK ME ALL NIGHT LONG
Tablatura de YOU SHOOK ME ALL NIGHT LONG, AC/DC

YOU SHOOK ME ALL NIGHT LONG

AC/DC






Intro:
          |3---------------|5--3------3----|---------------|---------------|
          |3---------------|3--3--3-----3--|3--------------|3--------------|
          |0---------------|0---0----0-----|2--------------|2--------------|
          |----------------|---------------|0----------3-4-|0-----3-4--3-4-|
          |----------------|---------------|---------------|---------------|
          |----------------|---------------|---------------|---------------|

          
          |3---------------|5--3------3----|---------------|3--------------|
          |3---------------|3--3--3-----3--|3--------------|2--------------|
          |0---------------|0---0----0-----|2--------------|0--------------|
          |----------------|---------------|0----------3-4-|---------------|
          |----------------|---------------|---------------|---------------|
          |----------------|---------------|---------------|---------------|

Verse : | G | C C G C G | D | G G C G C | :||

Main riff for first verse:
  G         C   C   G     C   G    D      G   G   D     G   D
--3--------(3)-(3)--3----(3)--3----2------3---3---2-----3---2------------------
--0---------1---1---0-----1---0----3------0---0---3-----0---3------------------
--0---------0---0---0-----0---0----2------0---0---2-----0---2------------------
--0--------(2)-(2)--0-----2---0----0------0---0---0-----0---0------------------
-(2)--------3---3--(2)----3--(2)---------(2)-(2)-------(2)---------------------
--3-----------------3---------3-----------3---3---------3----------------------

Second Verse (one guitar plays same as first verse, other plays this):
--3--------(3)-(3)--3----(3)--3----2------3---3---2-----3---2------------------
--0---------1---1---0-----1---0----3------3---3---3-----3---3------------------
--0---------0---0---0-----0---0----2------0---0---2-----0---2------------------
--0--------(2)-(2)--0-----2---0----0------0---0---0-----0---0------------------
-(2)--------3---3--(2)----3--(2)---------(2)-(2)-------(2)---------------------
--3-----------------3---------3------------------------------------------------

Verse
She was a fast machine
She kept my motor clean
She was the best damn woman I had ever seen
She has the sightless eyes
Telling me no lies
And knocking me out with those American thighs

Takin' more than her share
Had me fighting for air
She told me to come but I was already there

Cos the walls start shakin'
The ground was quakin'
My mind was achin'
And we were making it and.......


Chorus : | G A B | C B | D | A B C B |  :||
 (both guitars):
-----3-----------------------2-------------------------3-----------------------
-----3---------3-----3-------3----------3--------3-----0-----------------------
-----0-----------0-----0-----2------------0----0-------0-----------------------
-0---0--------------------0--0-------------------------0-----------------------
-2---2---0-2-3-----2--------------0-2-3------2---------2-----------------------
-3---3----------------------------------------------3--3-----------------------
-

CHORUS Verse:
        You shook me all night long (repeat)

Verse
Working double time on the seduction line
She was one of a kind, she was mine all mine
Had to cool it down to take another round
Then I got back in the ring to take another swing

Cos the walls start shakin'... etc...

(I play the D chord part of the intro on the 5th frett, but it's more or
 less the same notes. -Tim Morris  )

rock n roll enene


Que te parecio? Calificalo con estrellas!!

Rating: 7.7/10 (549 votos)

Este fichero es trabajo propio de su transcriptor y representa su interpretación personal de la canción. El material contenido en esta página es para exclusivo uso privado, por lo que se prohibe su reproducción o retransmisión, así como su uso para fines comerciales.


Deja tus comentarios:

Letras de AC/DC
Letras de canciones | Musica Independiente