Enviado por: brahma
Agrandar Letra
Reducir Letra
Imprimir


Otras Versiones de Riff Raff:




AC/DC, Riff Raff




       x2       x2      x2      x2      x2   x2
e|--------------------------|--------------------------|
B|--------------------------|--------------------------|
G|----7---------7-------7---|----7------7-----7--------|
D|----5---------4-------5---|----5------4-----5--------|
A|--------------------------|--------------------------|
E|--------------------------|--------------------------|

            1,2,3,4                   x3
e|--------------------------||--------------------------|
b|--------------------------||--------------------------|
g|-------2------------------||---------2----------------|
d|-------2------------------||---------2----------------|
a|-------0------------------||---------0----------------|
E|--------------------------||--------------------------|
           Rapido...                   x3
e|-----------------------------|--------------------------|
b|-----------------------------|--------------------------|
g|-----------------------------|-------2------------------|
d|------------2--4-------5---4-|-------2------------------|
a|----0--3--4-------3-0----3---|-------0------------------|
E|-----------------------------|--------------------------|


           Rapido...                   x3
e|-----------------------------|--------------------------|
b|-----------------------------|--------------------------|
g|-----------------------------|-------2------------------|
d|------------2--4-------5---4-|-------2------------------|
a|----0--3--4-------3-0----3---|-------0------------------|
E|-----------------------------|--------------------------|


           Rapido...                   x3
e|-----------------------------|--------------------------|
b|-----------------------------|--------------------------|
g|-----------------------------|-------2------------------|
d|------------2--4-------5---4-|-------2------------------|
a|----0--3--4-------3-0----3---|-------0------------------|
E|-----------------------------|--------------------------|



           Rapido...                   
e|-----------------------------|-------2-------3----2------|
b|-----------------------------|----------3----3------3----|
g|-----------------------------|-------2-------2----2------|
d|------------2--4-------5---4-|---------------------------|
a|----0--3--4-------3-0----3---|---------------------------|
E|-----------------------------|---------------------------|


E|-2--------3------2-----------|-----------------------------|
b|---3------3--------3---------|-----------------------------|
g|-2--------2------2-----------|-----------------------------|
d|-----------------------------|-----------------------------|
a|-----------------------------|---4-5----4-5-----4-5---4-5--|
e|-----------------------------|--0-----0-------0-----0------|

                                            y se repite la  
                   x4                      primera parte...
E|---------|--------------------|--------|--------------------|
b|---------|--------------------|--------|--------------------|
g|---------|--------------------|--------|--------------------|
d|---5--4--|--------------------|-5--4---|------2-4------5---4|
a|---------|----------4--5------|--------|-0-3-4-----3-0---3--|
e|---------|-------0------------|--------|--------------------|
Aviso: Este fichero es trabajo propio de su transcriptor y representa su interpretación personal de la canción. El material contenido en esta página es para exclusivo uso privado, por lo que se prohibe su reproducción o retransmisión, así como su uso para fines comerciales.
comentario del colaborador: EsTa CaNcIoN eStA mUy BUeNa... dIsFrUnTEnLa rOcK aNd rOll

Califica esta canción


Comentarios en Facebook