Enviado por: Benito Camela
Agrandar Letra
Reducir Letra
Imprimir


Otras Versiones de Around The World:




Red Hot Chili Peppers, Around The World

-------------------------------------------------
Around the world : red hot chilli peppers (guitar)
From the album: Californication
Tabbed by Alejandro Basilewsky
-------------------------------------------------

E|------------------------------------------  
B|161616161616161616161616161616161616161616   repeat this rift until
G|151515151515151515151515151515151515151515   the "guitar part" 
D|------------------------------------------
A|------------------------------------------
E|------------------------------------------


"guitar part"

E|---------------------------
B|---------------------------            repeat this until 
G|---------------------------               the chorus
D|-0-3-5-3-5-3-5---0-3-5-3-5-
A|---------------------------
E|---------------------------


 "chorus"

  (I know , i know for sure....)
E|-----------------------------------------------
B|----------------4-------------------6-4--------  
G|-3p5--5-5-3-5-5---5--3p5--5-5-3-5-5------------  
D|-----------------------------------------------
A|-----------------------------------------------
E|-----------------------------------------------

E|-----------------------------------------------
B|----------------4------------------------------  
G|-3p5--5-5-3-5-5---5--3p5--5-5-3-0--0-3--0-3----  
D|-----------------------------------------------
A|-----------------------------------------------
E|-----------------------------------------------


 "Final part"
   "I dont know if we have to hit 16 times each chords
   so just follow the CD."

  Dm                                            Gm
E|13-13-13-13-13-13-13-13-13-13-13-13-13-13-13--15-15-15-15-15-15-15-15-15-15-15-15-15-15-15-15
B|10-10-10-10-10-10-10-10-10-10-10-10-10-10-10--15-15-15-15-15-15-15-15-15-15-15-15-15-15-15-15
G|10-10-10-10-10-10-10-10-10-10-10-10-10-10-10--15-15-15-15-15-15-15-15-15-15-15-15-15-15-15-15
D|---------------------------------------------------------------------------------------------
A|---------------------------------------------------------------------------------------------
E|---------------------------------------------------------------------------------------------
  Am                      
E|17-17-17-17-17-17-17-17-20-20-20-20-20-20-20--
B|17-17-17-17-17-17-17-17-17-17-17-17-17-17-17--
G|17-17-17-17-17-17-17-17-17-17-17-17-17-17-17--
D|----------------------------------------------
A|----------------------------------------------
E|----------------------------------------------   


 
Aviso: Este fichero es trabajo propio de su transcriptor y representa su interpretación personal de la canción. El material contenido en esta página es para exclusivo uso privado, por lo que se prohibe su reproducción o retransmisión, así como su uso para fines comerciales.

Califica esta canción


Comentarios en Facebook