Enviado por: djkikeone
Agrandar Letra
Reducir Letra
Imprimir

Acordes:
½ tono
| +0 |
½ tono
||
Volver

Otras Versiones de Por Tu Amor:




Alacranes Musical, Por Tu Amor

 POR TU AMOR [Acústica]
[Alacranes Musical]

La guitarra de acompañamiento toca un arpegio [1,2 y 3 cuerda]
en conjunto con la guitarra que tocará la introducción

Introducción
   E      B            C#m      A 
E-------------------------------------------------
B-4/5-5-4-5/4---7-7-7-5-4-2---5-4-2-0---7-5-4-5/4
G-------------------------------------2-----------

Todo esto se repite 2 veces
E                      B
Por tu amor he sufrido tanto
               C#m
Ahora que no estas aquí
                      A 
Este amor no ha terminado
               E
Aun pienso en ti
                       B
Por tu amor yo iré vagando
        C#m
Tras mi soledad
             A                     E
No descan-sare hasta tenerte otra vez

                  B
Y si tú aun me quieres
                  C#m
Ya sabes donde estoy
                 A 
Aquí estaré esperándo-te
     B           C#m
Con todo el corazón

          E          B        A 
A si que ven y dime cuanto me amas
          E          B           A 
A si que ven y dime cuanto me extrañas
         E           B               A 
Por tu amor yo viajaría hasta el infinito
         E           B                 A 
Te cantaré canciones que para ti yo he escrito o o oo. . .

Intermedio

                Uhuhuhuuuuuu u u u. . .
   E      B            C#m      A 
E-------------------------------------------------
B-4/5-5-4-5/4---7-7-5-4-2---5-4-2-0---7-5-4-5/4
G-------------------------------------------------

Este es el final
   E            B          C#m         A 
E---------------------------------------------------
B-4/5-5-7-9-7-5-4-4-5-7-5-4-2-2-4-4/5-7--10-9-7-9-7
G---------------------------------------------------
      E             B    C#m        A 
E---------------------------------------------------
B-----4/5-5-7-9-7-5-4-7-5-4-2/4-5-7—10-9-7-9-7------
G---------------------------------------------------
          E       B      C#m  A          E
E---------------------------------------------------
B---------4/5-7-9-4-5-7-2-4-5—10-9-7-9-7-5----------
G---------------------------------------------------
 
Aviso: Este fichero es trabajo propio de su transcriptor y representa su interpretación personal de la canción. El material contenido en esta página es para exclusivo uso privado, por lo que se prohibe su reproducción o retransmisión, así como su uso para fines comerciales.

Califica esta canción


Comentarios en Facebook