Acordes y tablaturas para guitarra

Acordes y Tablaturas
Usuario: Password:

Buscar:
Acordes y Tablaturas >> Letra C >> Acordes de Canciones populares >> pantera rosa
Tablatura de pantera rosa, Canciones populares

Pantera rosa

Canciones populares






1|-----------------------------------
2|-----------------------------------
3|---------------------3-2-0---2-1---
4|--------0----2-3-2-0-------3-------
5|--0-2-4----------------------------
6|-----------------------------------


1|--------------------------------------------------
2|---------------------------------2-1--------------
3|---------------------3-2-0---2-1------------------
4|--------0----2-3-2-0-------3----------------------
5|--0-2-4-------------------------------------------
6|--------------------------------------------------

1|--------------------------------------------------
2|--4-2---------------------------------------------
3|------4-2-----2/3--2/3--2/3---4-2-----------------
4|----------4-2---------------------3-2-------------
5|--------------------------------------------------
6|--------------------------------------------------


Que te parecio? Calificalo con estrellas!!

Rating: 5.5/10 (3328 votos)

Este fichero es trabajo propio de su transcriptor y representa su interpretación personal de la canción. El material contenido en esta página es para exclusivo uso privado, por lo que se prohibe su reproducción o retransmisión, así como su uso para fines comerciales.


Comentario de matuloco22
esta cancion esta dedicada a mi hmana agus a mi papi sergio y a mi mama sandra
Deja tus comentarios:
Letras de canciones | Musica Independiente