Enviado por: julis
Agrandar Letra
Reducir Letra
Imprimir

Acordes:
½ tono
| +0 |
½ tono
||
Volver

Otras Versiones de zamba del carnaval:




Cuchi Leguizamon, zamba del carnaval

 
e-----0-0-----------------------------------------------
B--6----------------------------------------------------
G--7-------9--7--5--3--2--0-----------------------------
D----------------------3--2-----------------------------
A-------------------------------------------------------
E----------10-8--5--3-----------------------------------

se repite de nuevo pero con un cambio en los dos ultimos 
arpegios, que son asi:

e--------------
B--------------
G-2--0---------
D--------------
A--------------
E-1--0---------

y sigue de la siguiente forma:
*
e----------5-----------5--------------3------------3-----------
B-------6-----6-----6--------------3-----3------3--------------
G----7-----------7-------------5-------------5-----------------
D--------------------------------------------------------------
A--------------------------------------------------------------
E--6-----------------------5--------------------------3--------

e----------1------------1-----------------------3--3--3-----1---
B-------1-----1------1-----1---------------3-------------2-----2
G---3------------3------------3-------2-------------------------
D---------------------------------0-----------------------------
A---------------------------------------------------------------
E-3-------------------------------------------------------------


 Re9                 Solm
 vengo desde el olvido
 Do7        Fam  La7
 toro serrano
 Rem  Re/Do      mi79
 p`a ver si mato penas
 Solm   La7   Rem
 carnavaleando

 me anda faltando plata
 chicha y coraje
 y un empujon del diablo
 p`a enamorarme
 
 Fam      Solm   La# 
 carnavales carperos
                   Do7                   Fam 
 la chicha y la albhaca llorando en el vino
 Fam   Solm   Fam   Solm          Fam      La7      Rem
 los caballos alados, vuelan a la luna al galope tendido
 re9                Mi7   La7        Rem
 y un empujon del diablo, p`a enamorarme.

*se repite la segunda parte del intro.

 Re7
    quiero bailar la zamba
 los dos solitos
 para empaparte el alma
 con mi gualicho
 
 un pañuelito blanco
 busca consuelo
 mi corazon lo sigue
 de vuelo en vuelo.



acordes:

re9: 100230
mi79:024130
LA#: 113331
re/do:030231
 
Aviso: Este fichero es trabajo propio de su transcriptor y representa su interpretación personal de la canción. El material contenido en esta página es para exclusivo uso privado, por lo que se prohibe su reproducción o retransmisión, así como su uso para fines comerciales.
comentario del colaborador: De La Cuerda

Califica esta canción


Comentarios en Facebook