Enviado por: gegege8
Agrandar Letra
Reducir Letra
Imprimir

Acordes:
½ tono
| +0 |
½ tono
||
Volver

Otras Versiones de Untitled:




Simple Plan, Untitled

 INTRO: F#               
 
e|--------------------|| 
B|-------------2-----|| 
G|---------3---------|| 
D|-----4-------------|| 
A|---4---4---4---4--|| 
E|-2-----------------|| 
 
   D#m                  C#                  B 
e|------------------||------------------||-------------------| 
B|---------7--------||---------6--------||----------4--------| 
G|-----8--------8---||-----6--------6---||-----4--------4----| 
D|---8---8----8---8-||---6---6----6---6-||---4---4----4---4--| 
A|-6----------------||-4----------------||-2-----------------| 
E|------------------||------------------||-------------------| 
 

D#m 
I open my eyes I try to see but I\'m blinded 
       F# 
By the white light 
        D#m 
I can\'t remember how I can\'t remember why 
           F#   C# 
I\'m lying here tonight 
       B              C# 
And I can\'t stand the pain 
      D#m           F#            
And I can\'t make it go away 
     B               C# 
No I can\'t stand the pain 
 
                         F# 
How could this happen to me? 
             D#m 
I made my mistakes 
                B 
Got no where to run 
               C# 
The night goes on 
               F# 
As I\'m fading away 
                 D#m 
I\'m sick of this life 
             B 
I just wanna scream 

C#                       F# 
How could this happen to me? 
 

F# - 2x
 

D#m 
Everybody\'s screaming I try to make a sound 
           F# 
But no one hears me 
    D#m 
I\'m slipping off the edge I\'m hanging by a thread 
  F#                   C# 
I wanna start this over again 
   B        C# 
So I try to hold onto 
  D#m        F# 
A time when nothing mattered 
    B          C# 
And I can\'t explain what happened 
    D#m       F#                       B 
And I can\'t erase the things that I\'ve done 
     C# 
No I can\'t 
 
                         F# 
How could this happen to me? 
             D#m 
I made my mistakes 
                B 
Got no where to run 
               C# 
The night goes on 
               F# 
As I\'m fading away 
                 D#m 
I\'m sick of this life 
             B 
I just wanna scream 
C# 
How could this happen to me? 






 
e|---------------------------------------------------------------9/11-9---|| 
B|----------------------------------------------14-12-11---------9/11-9|| 
G|---------------------------------13^-11-13-11---------11------------||
D|----------------------------------11-13---------------------------11--||
A|------------11^-9-11~--9-11-11/13---------------------------------||
E|--7~--11-14-----------------------------------------------------------||
[COLOCADO POR THIAGO_GUITARRISTA]


F#m          D#m 
I made my mistakes 
                B 
Got no where to run 
               C# 
The night goes on 
               F# 
As I\'m fading away 
                 D#m 
I\'m sick of this life 
             B 
I just wanna scream 
C#                       F# 
How could this happen to me?
 
Aviso: Este fichero es trabajo propio de su transcriptor y representa su interpretación personal de la canción. El material contenido en esta página es para exclusivo uso privado, por lo que se prohibe su reproducción o retransmisión, así como su uso para fines comerciales.
comentario del colaborador: wenu, es la primera canso k posu i esperu k us agradi

Califica esta canción


Comentarios en Facebook