Enviado por: djkikeone
Agrandar Letra
Reducir Letra
Imprimir

Acordes:
½ tono
| +0 |
½ tono
||
Volver

Otras Versiones de corazon de roca:

La Rondalla de Saltillo, corazon de roca

 G          Em         Am
Como saber comprender tu querer
D7      G          Em         Am
como lograr que te fijes en mi,
D7       G            Em      Am
si ni siquiera has querido mirarme,
D7           C        Am      Dm
tampoco escucharme mujer caprichosa
D7              G          Em          Am
es por que te hicieron de piedra  o de roca,
D7
ese corazon.

Aun que de hielo sea tu corazon,
yo te dedico esta humilde cancion,
aunque parece que tu no la escuchas,
yo se bien que finges por ser orgullosa
es por que te hicieron de piedra o de roca,
ese corazon.


Yo se, que es imposible que me quieras ami,
amor, no llegaras a comprender,
 y sin embargo te llevo en mi ser,
como sentida y humilde razon, es que te hicieron de roca
y no puede tener corazon.

e------------------------------------
B-----0-1-3-1-0---1-3-1-0---1--------
G-0-2-----------2---------2----------
D------------------------------------  [2 Veces]
A------------------------------------
E------------------------------------

e-------------------------3----------
B-5--3--5--1--5555-4444-3------------
G------------------------------------
D------------------------------------
A------------------------------------
E------------------------------------
 
Aviso: Este fichero es trabajo propio de su transcriptor y representa su interpretación personal de la canción. El material contenido en esta página es para exclusivo uso privado, por lo que se prohibe su reproducción o retransmisión, así como su uso para fines comerciales.
comentario del colaborador: esta cnacion es por una niña que me tre loquito por alla su n0mbrs es dennise

Califica esta canción


Comentarios en Facebook