Enviado por: jose_m
Agrandar Letra
Reducir Letra


Otras Versiones de by the way:


red hot chili peppers, by the way

e|-------------------------------------------------
B|-------------------------------------------------
G|-------------------------------------------------
D|-10-10-10-10-10-10-10-10-10-10-10-10-10-10-10-10-
A|--8--8--8--8--8--8--8--8--7--7--7--7--7--7--7--7-
E|-------------------------------------------------
 
e|-------------------------------------------------
B|-------------------------------------------------
G|-------------------------------------------------
D|-------------------------------------------------
A|-7--7--7--7--7--7--7--7--7--7--7--7--7--7--7--7--
E|-5--5--5--5--5--5--5--5--5--5--5--5--5--5--5--5--

e|-------------------------------------------------
B|-------------------------------------------------
G|-------------------------------------------------
D|-10-10-10-10-10-10-10-10-10-10-10-10-10-10-10-10-
A|--8--8--8--8--8--8--8--8-10-10-10-10-10-10-10-10-
E|-------------------------------------------------

e|-------------------------------------------------
B|-------------------------------------------------
G|-------------------------------------------------
D|-------------------------------------------------
A|-7--7--7--7--7--7--7--7--7--7--7--7--7--7--7--7--
E|-5--5--5--5--5--5--5--5--5--5--5--5--5--5--5--5--

e|-------------------------------------------------
B|-------------------------------------------------
G|-------------------------------------------------
D|-10-10-10-10-10-10-10-10-10-10-10-10-10-10-10-10-
A|--8--8--8--8--8--8--8--8--7--7--7--7--7--7--7--7-
E|-------------------------------------------------

e|-------------------------------------------------
B|-------------------------------------------------
G|-------------------------------------------------
D|-------------------------------------------------
A|-7--7--7--7--7--7--7--7--7--7--7--7--7--7--7--7--
E|-5--5--5--5--5--5--5--5--5--5--5--5--5--5--5--5--

e|-------------------------------------------------
B|-------------------------------------------------
G|--------------------------9--9--9--9--9--9--9--9-
D|-10-10-10-10-10-10-10-10-10-10-10-10-10-10-10-10-
A|--8--8--8--8--8--8--8--8-------------------------
E|-------------------------------------------------

e|-------------------------------------------------
B|-------------------------------------------------
G|-9--9--9--9--9--9--9--9--9--9--9--9--9--9--9--9--
D|-7--7--7--7--7--7--7--7--7--7--7--7--7--7--7--7--
A|-------------------------------------------------
E|-------------------------------------------------
Aviso: Este fichero es trabajo propio de su transcriptor y representa su interpretación personal de la canción. El material contenido en esta página es para exclusivo uso privado, por lo que se prohibe su reproducción o retransmisión, así como su uso para fines comerciales.

Califica esta canción


Comentarios en Facebook