Enviado por: <--manu-->
Agrandar Letra
Reducir Letra
Imprimir











Guns N´ Roses, Don´t Cry

Intro:
 
          Am            Dm            G 
E|-----|--------0-------------1---------------3-----------------------| 
B|-----|----------1---------3---3---------------3---------------------| 
G|-----|------2-----2-----2-------2---------0-----0-------0-----0-----| 
D|-----|----2---------0-0-----------------0-------------0-----0-------| 
A|-----|--0-------------------------0---2-----------0-3-----2-----3-2-| 
E|--3--|------------------------------3-------------------------------| 


   Am            Dm            G 
E|-------0-------------1--------------------------| 
B|---------1---------3---3------------------------| 
G|-----2-----2-----2-------2---------0------------| 
D|---2---------0-0-----------------0-----------2--| 
A|-0-------------------------0---2-------------0--| 
E|-----------------------------3---------2-3-4----| 
Aviso: Este fichero es trabajo propio de su transcriptor y representa su interpretación personal de la canción. El material contenido en esta página es para exclusivo uso privado, por lo que se prohibe su reproducción o retransmisión, así como su uso para fines comerciales.

Califica esta canción


Comentarios en Facebook