Enviado por: <--manu-->
Agrandar Letra
Reducir Letra
Imprimir



Guns N´ Roses, Civil War

Em

|---------------------------------------------------|
|---------------------------------------------------|
|---------0----------------------------0------------|
|----2-------2----2-------------2--------2-----0----|
|------2--------2------2-----2-----2-------0-2------|
|--0-----------------0-----0------------------------|

G

|----------------------------------------------------|
|----------------------------------------------------|
|-----------0---------------------0------------------|
|----0--------0---0-------0---------0-----2----------|
|-------2-------2-------2---2---------0-2------------|
|--3------------------3------------------------------|

Em

|---------------------------------------------------|
|---------------------------------------------------|
|---------0----------------------------0------------|
|----2-------2----2-------------2--------2-----0----|
|--2--2--------2------2-----2-----2-------0-2-------|
|-0-----------------0-----0-------------------------|

G

|---------------------------------------------------|
|-----------------------------2-0-------------------|
|----------0----------------------2-0---------------|
|-----0------0---0-------0--------------------------|
|---2---2------2-------0---0------------------------|
|-3------------------2------------------------------|




Aviso: Este fichero es trabajo propio de su transcriptor y representa su interpretación personal de la canción. El material contenido en esta página es para exclusivo uso privado, por lo que se prohibe su reproducción o retransmisión, así como su uso para fines comerciales.

Califica esta canción


Comentarios en Facebook