Acordes y tablaturas para guitarra

Acordes y Tablaturas
Usuario: Password:

Buscar:
Acordes y Tablaturas >> Letra G >> Acordes de Guns N´ Roses >> Welcome to the jungle
Tablatura de Welcome to the jungle, Guns N´ Roses

Welcome to the jungle

Guns N´ Roses






Intro: Gtr.1 w/delay (see recomendations at bootom): 
                                /-----call this Riff A------ 
E|-----------------------------|-----------------------------| 
B|-----------------------------|-----------------------------| 
G|---4-------4---------4-4-4---|--4--4-2--2-----------------:| 
D|-----------------------------|------------4--4-2--2--0----:| 
A|-----------------------------|--------------------------2--| 
E|-----------------------------|-----------------------------| 
      --------only once----------/                           ----repeat this 2 times----/

Gtr.2: Play these Power chords B5 A5 G5 E5 B5 A5 E5         
                                                             
     B5       A5         G5      E5      B5   A5  E5 D5  A5   
E|----------------------------------------------------------| 
B|----------------------------------------------------------| 
G|---4--4--------------------------------4------------7-----| 
D|---4--4-----7--7-------5--5----2--2----4----7---2---7--7-|                                
A|---2--2-----7--7-------5--5----2--2----2----7---2---5--7--|  
E|------------5--5-------3--3----0--0---------5---0------5--| 
                                                              
E|--------------------------------------7--7/5--5-0---------| 
B|--------------------------------------7--7/5--5-0---7--5--| 
G|------------7-9-9fb---7qb---------------------------7--6--| 
D|---7h9--9-------------------7h9--9s2----------------7--7--| 
A|-------------------------------------------------------0--| 
E|----------------------------------------------------------|                                        

Gtr.2: (faster Gtr 2. & 3 => Tempo=124) 
     B5        B5      B5      B5       B5     B5   B5     
E|------------------------------------------------------|   
B|------------------------------------------------------|   
G|---4---------4-------4-------4--------4------4----4---|   
D|---4---------4-------4-------4--------4------4----4---|   
A|---2---------2-------2-------2--------2------2----2---|  
E|------------------------------------------------------|  
                                                            
Gtr.3:                                                      
E|-------------------------------------5--5-------------|   
B|-----------------------3---5-----5hb----5hb---3-------|  
G|----------------2--4------------------------------4--|   
D|---------2--4-----------------------------------------|   
A|--2--4------------------------------------------------|   
E|------------------------------------------------------|   

Gtr.1:    P.M.     P.M.                       Palm mute     
E|--------------------------|---------------------------|   
B|--------------------------|---------------------------|   
G|--2------2--2--0----------|--2-x-x-----2-2--0---------|   
D|--2------2--2--0----------|--2-x-x-----2-2--0---------|   
A|--0------0--0-----------0-|--0-x-x-----0-0----------0-|   
E|----3hb-----------3--2----|--------3hb--------3--2----|   
                                                            
Gtr.2:                                                     
E|--------------------------|---------------------------|   
B|--------------------------|---------------------------|   
G|--------------------------|---------------------------|   
D|--------------------------|---------------------------|  
A|-7--7--5--7--7--7-5--4--2-|-7--7--5--7--7--7--5--4--2-|   
E|-5--5--3--5--5--5-3--2--0-|-5--5--3--5--5--5--3--2--0-|  
                                                           
Gtr.3: play an A barrechord over main riff                  



Gtr.1:                                                                      
E|--------------------x--5----------------|-------------------------|   
B|----------------------------------------|-------------------------|   
G|---2-----------x------------------------|--2-x-x-----2-2--0-------|   
D|---2-----------x------------------------|--2-x-x-----2-2--0-------|   
A|---0-----0-----x--------------3p0-------|--0-x-x-----0-0--------0-|   
E|-------------------------------------2---|--------3hb--------3-2--|   
                                                                            
Gtr.2:                                                                      
E|----------------------------------------|-------------------------|   
B|----------------------------------------|-------------------------|   
G|-7fb5-----7--5hb------------------------|-------------------------|   
D|-------7---------7-5--------------------|-------------------------|   
A|----------------------7--6--53--5--3---|-0-0-----0-0-------------|   
E|-----------------------------------5--3-|-----3hb-----3hb--2--0-0-|   
                                                                           
Gtr.3: play an A barrechord over main riif                                   
In the part ‘We are the people that can find...’ play: 

Gtr.1:    P.M.     P.M.                       Palm mute     
E|--------------------------|---------------------------|  
B|--------------------------|---------------------------|   
G|--9--9--7-x-9--9----------|--2-x-x-----2-2--0---------|   
D|--9--9--7-x-9--9--7--6--4-|--2-x-x-----2-2--0---------|  
A|--7--7--5-x-7--7--5--4--2-|--0-x-x-----0-0----------0-|   
E|--------------------------|--------3hb--------3--2----|   
                                                            
Gtr.2:                                                      
E|--------------------------|---------------------------|   
B|--------------------------|---------------------------|   
G|--------------------------|---------------------------|   
D|--------------------------|---------------------------|   
A|-7--7--5--7--7--7-5--4--2-|-7--7--5--7--7--7--5--4--2-|   
E|-5--5--3--5--5--5-3--2--0-|-5--5--3--5--5--5--3--2--0-|   
                                                            
Gtr.3: play an A barrechord over main riff                  
chorus: 
          C   C/B  C/A    C/G       D     D/C#     D/B      D/A 
In the jun-gle,  wel-come to the jun-gle watch it bring you to your 
E|----------------------------------------------------------------| 
B|----------------------------------------------------------------| 
G|--------5-------------------------7-----------------------------| 
D|--------5-------------------------7-----------------------------| 
A|--------3----2--------------------5------4----------------------| 
E|------------------5------3-----------------------7---------5----| 

E5 
        sha na na na na na... 
E|-------------------------------| 
B|-------------------------------| 
G|--9--9-------------------------|  three 
D|--9--9-------------------------|  times 
A|--7--7--5----------------------| 
E|-----------6--6--65--5--3--0--| 



And then: I wanna watch you bleed 
E|-----------------------------------------| 
B|-----------------------------------------| 
G|-----------------------------------------| 
D|-----------------------------------------| 
A|--------7----5---------------------------| 
E|-----------------------6------5---3---4--| 

Solo 1 (w/ad lib vocals): 
|--------------------------------------------------------------------| 
|------------------------------12-----------15~--------------15--15~~| 
|--12/13---------13---13~(13)--12--13-x-x---16~--12/11-------13--13~~| 
|--11/12-----(12)-14-14---14~(14)------14-x-x----13/12---------------| 
|--------------------------------------------------------------------| 
|---------0--------------------------------------------0--0----------| 



|----------------------15--15--------------19fb----19-18-17fb--15-16-| 
|~~~(15)p12---14/15----15--15-----------17---------------------------| 
|~~~(13)------15/16------------6/0--/18------------------------------| 
|--------------------------------------------------------------------| 
|--------------------------------------------------------------------| 
|--------------------------------------------------------------------| 



|--------------------------------------------------------------------| 
|-15~---(15)---15fb--(15)-15p12-------------------------------------| 
|-----------------------------14fb--14hb(14)p12--14-12---------------| 
|-------------------------------------------------------14-14--------| 
|-------------------------------------------------------------13-13--| 
|--------------------------------------------------------------------| 







|----------------------A.H.------------------------------------------| 
|--------------------------------------------------------------------| 
|----------------------8hb-------------------------------------------| 
|------------------------------------------11-----------------------| 
|-12fb-(12)p10-------------------------------------------------------| 
|-----------12-------------------------------------------------------| 



 After chorus come this: 
   D          G                    D                G 
|-------------3-----(3)---------------------------------------------| 
|--7----------3-----(3)---6hb-----7---8p7------12--13p12----------8-| 
|--7----------4-----(4)---4hb-----7---7--------12---------75--5----| 
|--7----5-----5-----(5)-----------7---7----7---10--12---------------| 
|--5----3-----5-----(5)-----------5-------------8--10---------------| 
|-------------3-----(3)---------------------------------------------| 



 D                     G                        D                 D7 
     And when...     high    you never              ever want to come down 
|--------------------------------------------------------------------| 
|-7-------------------12---13p12---------107---7--------------------| 
|---7-----------------12------------------------7--------------------| 
|-----7--6--7----10---12---------12p10---107---7-------------10-----| 
|-----------------8---10---------------------------------------8-----| 
|--------------------------------------------------------------------| 

Pre-solo: 
|--------------------------------------------------------------------| 
|--------------------------------------------------------------------| 
|---6/7-------------9-------9-----9---6/7------------------12---12---| 
|---5/6-------------9-------9-----9---5/6------------------12---12---| 
|--------------------------------------------------------------------| 
|---0-----0----0---------0-------------------0-------0---------------| 



|--------------------------------------------------------------------| 
|--------------------------------------------------------------------| 
|---6/7-------------9-------9-----9---6/7------------------12---12---| 
|---5/6-------------9-------9-----9---5/6------------------12---12---| 
|--------------------------------------------------------------------| 
|---0-----0----0---------0-------------------0-------0---------------| 



 Solo 2: 
|--------------------------------------------------------------------| 
|--------------------------------------------------------------------| 
|-----------------------------------------9hb-----------11fb--(11)---| 
|---------------------------9-9hb-11-(11)---------11-----------------| 
|--------7----9fb--(9)----7-7-9/11-----------------------------------| 
|--9--------9--------------------------------------------------------| 





|----------------------------------------------------------------0---| 
|-------------------------12-(12)-------12--------------------5--5---| 
|--(11)----11fb(11)p9-----9hb---11-(11)----11-(11)p9---------6-6-----| 
|----------------------11-------------------------11-9-(9)/6---------| 
|--------------------------------------------------------------------| 
|--------------------------------------------------------------------| 



|--(0)--0--0--0------------------------------------------------------| 
|--(5)--3--2--0---2hb--2hb--0----0----0--(0)--0--0--0--0--2--4-------| 
|-----------------2hb--2hb--0--1-1--2-4--(4)--4--2--2--1--2--4-------| 
|---------------------------------------------------------4--4--2fb(2)p0-2-| 
|--------------------------------------------------------------------| 
|--------------------------------------------------------------------| 



|--------------------------------------------------------------------| 
|---15-15fb-(15)-15fb(15)--------------------------------1412-------| 
|-/4----------------------14fb-14fb--14fb(14)p12----------------6hb--| 
|-/4--/12-----------------------------------------14-12--1412-------| 
|--------------------------------------------------------------------| 
|--------------------------------------------------------------------| 



|--------------------------------------------------------------------| 
|--------------------------------------------------------------------| 
|--(6)--4------------------------------------------------------------| 
|----------6hb------4------------------------------------------------| 
|---------------------4-(4)--2---------------------------------------| 
|------------------------------4hb----0--2----------------------(2)--| 



Finish this way: 
    E5  D5   B5  A5  G5  E5   A   G   E       E7#9 
|----------------------------------------------3-----(3)------------| 
|----------------------------------------------3-----(3)------------| 
|---9---7---------------------6---4---1--------1-----(1)------------| 
|---9---7----8----7---5-------7---5---2--------2-----(2)------------| 
|---7---5----8----7---5-------7---5---2--------2-----(2)------------| 
|------------6----5---3---0---5---3---0--------0-----(0)*-----------| 
                                  * Slowly detune low E string 


Que te parecio? Calificalo con estrellas!!

Rating: 8.2/10 (1524 votos)

Este fichero es trabajo propio de su transcriptor y representa su interpretación personal de la canción. El material contenido en esta página es para exclusivo uso privado, por lo que se prohibe su reproducción o retransmisión, así como su uso para fines comerciales.


Comentario de <--manu-->
Posiblemete les resultara un poco dificil pero si la practican.... sos el nuevo slash...
Deja tus comentarios:

Letras de Guns N´ Roses
Letras de canciones | Musica Independiente