Acordes y tablaturas para guitarra

Acordes y Tablaturas
Usuario: Password:

Buscar:
Acordes y Tablaturas >> Letra P >> Acordes de Panda >> Procedimientos para llegar a un comun acuerdo
Tablatura de Procedimientos para llegar a un comun acuerdo, Panda

Procedimientos para llegar a un comun acuerdo

Panda






Bueno esta Cancion Se toka con 2 guitarras especifico lo q hace cada una y deben de escuchar bien la cancion bien para q cuadren bien el ritmo.

Ademas esta afinada medio tono abajo
1.D#
2.A#
3.F#
4.C#
5.G#
6.D#




Verso 1
(se utiliza una sola guitarra)

Am
Yo se que soy poco superficial 
Y que me manejo en la promiscuidad 
Am
Se que quieres, yo también,
(Sí, te voy a hablar)

Te pongo a sudar y lo finges bien,
(con la verdad)

Si quieres prudencia a nadie le diré,
(Para no perder)     

Y con elegancia yo te lo daré,
(El tiempo más)

Coro

(guitarra 2)
F                  C
Se que me quieres tener 
            F
Y yo te prometo
        Am              G 
Prometo no hablarte de amor 
             F
Me quieres tener 
             C
Tu cuerpo descomunal
        F       
Sin indumentaria
              Am            G

Lo quiero con todo respeto palpar 

(mientras hace esto la Guitarra 1 va haciendo lo siguiente)

D#|---------------|--------------|-----------------|------------
A#|18-17--------18|-18-17------18|-18-17---------18|18-17-----18
F#|---------------|--------------|---------17--17--|-----17-17--
C#|------19-19----|-------19-19--|-----------------|-----------|

|--------------|---------------|------------------|------------
|18-17------18-|18-17-------18-|-18-17----13----15|13--12-----18
|--------------|---------------|------------------|-------------
|------19-19---|------19-19----|------------------|-------------

|---------------|--------------|-----------------|-------------|
|18-17--------18|-18-17------18|-18-17---------18|18-17-----18-|
|---------------|--------------|---------17--17--|-----17-17-- |------19-19----|-------19-19--|-----------------|-------------|

|--------------|---------------|------------------|------------
|18-17------18-|18-17-------18-|-18-17----13----15|13-12--10---8
|--------------|---------------|------------------|-------------
|------19-19---|------19-19----|------------------|-------------


Verso 2
(guitarra 2)
Am
Aaahh tu nombre olvidé yo preguntar 
Dónde vives y cómo te gusta más 

(guitarra 1 esto la haces durante el verso)
D#|-------|-----|----|-----------|      *2
A#|8/10---|-12--|--13|--13--12--8/10

Am
Tengo que advertirte, tienes que saber
[Quiero dejar algo]
      F
Que igual y no estaré al amanecer
[en claro ya]
           Am
Crees que solo te quiero para una vez
[Deseo hacerlo todo]
        F       G            F
Pero sabes qué, dos estaría bien
[Todo nada más]

Coro

Interludio

Guitarra 1 (haces esto durante todoo el interludio)

D#|--8--8--8--8|-8--8--8--8|-3--3-3-3|-8-8-8-8|-7-7-7-7|
A#|-8--8--8--8-|8--8--8--8-|5--5-5-5-|8-8-8-8-|8-8-8-8-|

-3-3-3-3|-5-5-5-5|
5-5-5-5-|6-6-6-6-|

Guitarra 2
acompaña con esto
C,G,E,F

Sensual, la depravación en mi es sensual, rugé mi nombre así sensual (x2) 


Am
(Tengo que advertirte, tienes que saber 
Que igual y no estaré al amanecer 
Crees que solo te quiero para una vez 
Pero sabes qué, dos estaría bien)


Coro (igual q los anteriores coros)
Se que me quieres tener 
Y yo te prometo 
Prometo no hablarte de amor 

Me quieres tener 
Tu cuerpo descomunal 
Sin indumentaria 
Lo quiero con todo respeto palpar...

Final

guitarra 1

D#|------------------------------|
A#|8/10---12---13--13/15--13---12|  *2

el ultimo es diferente


D#|------------------------------|
A#|8/10---12---13--13/15--13---10|

Guitarra 2

A,F,A,F

FIN

Este tab para mi esta en un 85% exacto
Escuchen bien la canion para q acomoden el ritmo
En la parte de los versos solo utilizamos el Am solo q le hecemos algunas modificaciones quitandole tonos
ejemplo

Am   Am!
0     0
1     1
2     2 
2     0

O simplemente ttoquenlo con Am
Espero les guste duda o comentario haganlo saber

****TE AMO LIZ***




Que te parecio? Calificalo con estrellas!!

Rating: 7.1/10 (297 votos)

Este fichero es trabajo propio de su transcriptor y representa su interpretación personal de la canción. El material contenido en esta página es para exclusivo uso privado, por lo que se prohibe su reproducción o retransmisión, así como su uso para fines comerciales.


Deja tus comentarios:

Letras de Panda
Letras de canciones | Musica Independiente