Enviado por: sarita
Agrandar Letra
Reducir Letra
Imprimir


Otras Versiones de El señor es mi rey:




Inspiracion, El señor es mi rey

Bm                       A
    El señor es mi rey mi todo
Bm                        A
    El señor es mi luz mi rey
G                       D               Nota:usar efecto ska o wah wah para
    me hace vibrar de gozo              tocar a ritmo de roots
G                      D
    El que guía mis pasos
G                       D
    El que extiende sus brazos
G                     D    A  D
    El creador de los cie, e, los.




usar estos acordes para darle el tono de roots


         Bm     A     D      G
E|---7------5-----2------3---
B|---7------5-----3------3---
G|---7------6-----2------4---
D|---9------7------------5---
A|---------------------------
E|---------------------------




Solo opcional:

E|--------------------------------7-5----8-12-10-8-12-8-7---------------------------
B|-5-7-8-7-5-8-5-3-7--5-7-8-7-5-8--------------------------8------------------------
G|----------------------------------------------------------------------------------
D|----------------------------------------------------------------------------------
A|----------------------------------------------------------------------------------
E|----------------------------------------------------------------------------------



E|-12-12-12-10-8-7-----12-12-12-10-8-7-----12-12-12-10-8-7-----------------------
B|-----------------8-------------------8-------------------10-8-7-5--------------
G|-------------------------------------------------------------------------------
D|-------------------------------------------------------------------------------
A|-------------------------------------------------------------------------------
E|-------------------------------------------------------------------------------

Aviso: Este fichero es trabajo propio de su transcriptor y representa su interpretación personal de la canción. El material contenido en esta página es para exclusivo uso privado, por lo que se prohibe su reproducción o retransmisión, así como su uso para fines comerciales.

Califica esta canción


Comentarios en Facebook