Enviado por: sabre
Agrandar Letra
Reducir Letra
Imprimir






Red Hot Chili Peppers, Californication

e-----------------------------
b-----0-1---------------------
g---------------------0-2-2-0-
d---2-----2-0-2---------------   (x2)
a-0-------------3---3---------
e-----------------1-----------

e-----------------------------
b-----5--------------------3--
g------------4-------2--------
d---5--5-----------------0----
a-3--------5---5---3---3------
e--------3-------1------------
Aviso: Este fichero es trabajo propio de su transcriptor y representa su interpretación personal de la canción. El material contenido en esta página es para exclusivo uso privado, por lo que se prohibe su reproducción o retransmisión, así como su uso para fines comerciales.
comentario del colaborador: Mi cuarta transcripción espero q les guste. suerte cn la canción. M.P.M \SABRE//

Califica esta canción


Comentarios en Facebook