Acordes y tablaturas para guitarra

Acordes y Tablaturas
Usuario: Password:

Buscar:
Acordes y Tablaturas >> Letra M >> Acordes de Mana >> Labios Compartidos
Tablatura de Labios Compartidos, Mana

Labios Compartidos

Mana







Intro :    Cm - D# - A# - FM


    ª                                     ª
  Cm  D#  A#          Fm                 Cm  D# A#
Amor mió,     si estoy debajo del vaivén de tus piernas
                                   ª
             Fm                   Cm    D#   A#
Si estoy hundido en un vaivén de caderas
                           ª           ªª
          Fm              Cm  D#  A#   Fm
Esto es el cielo, es mi cielo

          ª                         ªª
E||------------------|----------------------------------|
B||---8-----8--------|--8-----8-------------------------|
G||------8-----------|-----8-------------10-10--7-8-----|
D||------------8-----|-----------8--10/8-----------10---|
A||------------------|----------------------------------|
E||------------------|----------------------------------|


E||---------------------|------------------------------|
B||---------------------|----8-----9------8---6--------|
G||----------8----------|--7-----8----8--8---8--7------|
D||-6-8-8/10---10-------|------------------------------|
A||---------------------|------------------------------|
E||---------------------|------------------------------|


E||------------------------------|
B||----8-----9------8---6--------|
G||--7-----8----8--8---8--7------|
D||------------------------------|
A||------------------------------|
E||------------------------------|


E||--------------------------|-------------------------|
B||--9-9-------11-11----9-8--|--10-10-8-8--8-8-7-7-----|
G||------12-12-------12------|-------------------------|
D||--------------------------|-------------------------|
A||--------------------------|-------------------------|
E||--------------------------|-------------------------|


En esta parte se arpejean cuerda por cuerda los tonos

           G#                  A#
Labios compartidos, labios divididos (mi amor)
D#                        Cm
yo no puedo compartir tus labios
                 G#                    A#
ni comparto el engaño, ni comparto mis dias y el dolor
D#                        Cm
ya no puedo compartir tus labios
    G#        A#            Cm   D#   A#   Fm
oh amor!, oh amor!, compartido...

Cm - D# - A# - FM

Se repite esto varias veces (punteado de 3 en 3 cada pisada)

E||-----------------------------------|
B||-----------------------------------|
G||---555-777-888-555-777-888-101010--|
D||-----------------------------------|
A||-----------------------------------|
E||-----------------------------------|

Luego se va con el mismo punteo de 3 en 3 hasta el 11

E||-------------------------8-10-11-----------------|
B||------------------8-9-11-------------------------|
G||---5-7-8-5-7-8-10--------------------------------|
D||-------------------------------------------------|
A||-------------------------------------------------|
E||-------------------------------------------------|

etc etc...


Que te parecio? Calificalo con estrellas!!

Rating: 6.8/10 (796 votos)

Este fichero es trabajo propio de su transcriptor y representa su interpretación personal de la canción. El material contenido en esta página es para exclusivo uso privado, por lo que se prohibe su reproducción o retransmisión, así como su uso para fines comerciales.


Deja tus comentarios:

Letras de Mana
Letras de canciones | Musica Independiente