Acordes y tablaturas para guitarra

Acordes y Tablaturas
Usuario: Password:

Buscar:
Acordes y Tablaturas >> Letra L >> Acordes de Los Twist >> El Estudiante
Acordes de El Estudiante, Los Twist

El Estudiante

Los Twist






la.la7.mi.mi7.re.
 ---------------------------------
---------------------------------
---------------------5h6-5h6-----   4 veces
-7---5-7---5-7---5-7-------------
---7-----7-----7-----------------
---------------------------------
    LA            Mi 
Es cortes,y muy galante
   Mi7        La 
Educado por demas
        La7        Re                
En su escala de valores 
      LA           Mi 
Lo primero es estudiar

      LA              Mi 
Muy correcto en sus modales
   Mi7           La 
Moderado al criticar
La7                Re
Nunca se copia de nadie
      La   Mi7     La 
Y a nadie deja copiar

LA        			   Mi 
Es el estudiante,estudiante de verdad 
                      Mi7         La 
Es el estudiante el ejemplo universal
                        La7       Re
Y los estudiantes te queremos saludar
                             LA 
Entonando esta cancion con orgullo 
                  MI                        LA 
Y con pasion estudiantes,estudiantes a estudiar


---------------------------------
---------------------------------
---------------------5h6-5h6-----    2 veces
----5-7---5-7---5-7-------------
---7-----7-----7-----------------
---------------------------------
      LA               Mi 
En historia es el primero,
      Mi7         La 
En latin es el mejor
          La7               Re
El va a clases aunque alla huelga 
     MI             LA 
Y entretiene al director

     LA            Mi 
Sus amigos [lo idolatran]
    Mi7           La 
Lo quieren envalsamar
      La7         Re
Para hacer un monumento 
LA     MI       La 
Al estudiante ideal


LA        			   Mi 
Es el estudiante,estudiante de verdad 
                      Mi7         La 
Es el estudiante el ejemplo universal
                        La7       Re
Y los estudiantes te queremos saludar
                             LA 
Entonando esta cancion con orgullo 
                  MI                        LA 
Y con pasion estudiantes,estudiantes a estudiar


---------------------------------
---------------------------------
---------------------5h6-5h6-----   4 veces
----5-7---5-7---5-7-------------
---7-----7-----7-----------------
---------------------------------

La               Re         La         Mi 
Alumnos de sexto grado la carrera termino
La              Re     La           Mi 
Las aulas estan vacias vacio mi corazon
La             Re                         Mi 
Los saludo la maestra los saluda el director



LA        			   Mi 
Es el estudiante,estudiante de verdad 
                      Mi7         La 
Es el estudiante el ejemplo universal
                        La7       Re
Y los estudiantes te queremos saludar
                             LA 
Entonando esta cancion con orgullo 
                  MI                        LA 
Y con pasion estudiantes,estudiantes a estudiar


---------------------------------
---------------------------------
---------------------5h6-5h6-----   2 veces
-7---5-7---5-7---5-7-------------
---7-----7-----7-----------------
---------------------------------

---------
---------
---------   1 veces
-7---5-7-
---7-----
--------- 

Que te parecio? Calificalo con estrellas!!

Rating: 7.3/10 (61 votos)

Este fichero es trabajo propio de su transcriptor y representa su interpretación personal de la canción. El material contenido en esta página es para exclusivo uso privado, por lo que se prohibe su reproducción o retransmisión, así como su uso para fines comerciales.


Deja tus comentarios:
Letras de canciones | Musica Independiente