Acordes y tablaturas para guitarra

Acordes y Tablaturas
Usuario: Password:

Buscar:
Acordes y Tablaturas >> Letra P >> Acordes de Panda >> Muñeca
Tablatura de Muñeca, Panda

Muñeca

Panda






Autor: Panda
Tablatura hecha por: David Escobar

Muñeca

Intro acustico

Primera guitarra (Ongui)
e|---------0-------------------------------------|
B|--3----------3-----5--7--8--7--5--3—3h5--3--2---------|
G|-----2----2----2-------------------------------|
D|--------------------------------------------|x2
A|---------------------------------------------|
E|----------------------------------------------|

segunda guitarra (Pepe)
e|-----------------------------------------------|
B|--------------------------------------------------|
G|--5-5------------------------------------------------|
D|--5-5--5-5--7--7---3-3------------------------------|x4
A|--3-3--5-5--7--7---3-3--------------------------------|
E|--------3-3---5-5---1-1-----------------------------|

(bajo) 
todo lo q necesites solo yo lo puedo dar todo lo q tu kieras yo lo tengo


segunda guitarra (Pepe)

necesitas un abrigo entre mis brazos estarás necesitas un camino yo lo pinto
e|-----------------------------------------------|
B|--------------------------------------------------|
G|--5-5------------------------------------------------|
D|--5-5--5-5--7--7---3-3------------------------------|x2
A|--3-3--5-5--7--7---3-3--------------------------------|
E|--------3-3---5-5---1-1-----------------------------|

coro
Mi muñek sta...
e|-----------------------------------------------|
B|--------------------------------------------------|
G|--5-5------------------------------------------------|
D|--5-5--5-5--7--7---3-3------------------------------|x4
A|--3-3--5-5--7--7---3-3--------------------------------|
E|--------3-3---5-5---1-1-----------------------------|


Intermedio 

Primera guitarra (Ongui)
e|---------0-------------------------------------|
B|--3----------3-----5--7--8--7--5--3—3h5--3--2---------|
G|-----2----2----2-------------------------------|
D|--------------------------------------------|x2
A|---------------------------------------------|
E|----------------------------------------------|

e|-----------------------------------------------|
B|--------------------------------------------------|
G|--5-5------------------------------------------------|
D|--5-5--5-5--7--7---3-3------------------------------|x2
A|--3-3--5-5--7--7---3-3--------------------------------|
E|--------3-3---5-5---1-1-----------------------------|



(bajo)
mi muñek sta llorando pero yo no se xq será q no me kiere no me kiere

necesitas un amigo aki yo mero stare pero t pido q me mates matmae
e|-----------------------------------------------|
B|--------------------------------------------------|
G|--5-5------------------------------------------------|
D|--5-5--5-5--7--7---3-3------------------------------|x2
A|--3-3--5-5--7--7---3-3--------------------------------|
E|--------3-3---5-5---1-1-----------------------------|


coro 
mi muñeca...
e|-----------------------------------------------|
B|--------------------------------------------------|
G|--7-7--------4-4------------------------------------------|
D|--7-7--7-7--4-4--5--5---------------------------------------------| 
A|--5-5--7-7--2-2--5--5----------------------------------------------|
E|--------5-5---------3-3--------------------------------------------|


silencio--------------------------------------


solo:
primera guitarra

------------------------------------------------------------------------------
-/7-10---7-5-----/7-5--/7-10---7-5---11-11-10-8--/7-10---7-5---11-11-/14------
-------9-----7-7-------------9-----7-------------------9-----7----------------
------------------------------------------------------------------------------
------------------------------------------------------------------------------
------------------------------------------------------------------------------


-------------------------------------------11-11-11-119-9-9------------------
-------13-14-------13-14-------13-14------------------------------------------
-12-10-------12-10-------12-10-------12-10------------------------------------
------------------------------------------------------------------------------
------------------------------------------------------------------------------
------------------------------------------------------------------------------


segunda guitarra

e|-----------------------------------------------|
B|--------------------------------------------------|
G|--7-7--------4-4------------------------------------------|
D|--7-7--7-7--4-4--5--5---------------------------------------------| 
A|--5-5--7-7--2-2--5--5----------------------------------------------|
E|--------5-5---------3-3--------------------------------------------|



coro 
e|-----------------------------------------------|
B|--------------------------------------------------|
G|--7-7--------4-4------------------------------------------|
D|--7-7--7-7--4-4--5--5---------------------------------------------| 
A|--5-5--7-7--2-2--5--5----------------------------------------------|
E|--------5-5---------3-3--------------------------------------------|


sabes q fue.....                                               Nadie la hizo llorar
e|--------------------------------------------|--------------------------------------------|
B|-------------------------------------------|--------------------------------------------|
G|--7-7------------------------7-7---------|-------------------------7-7------------| (chequeen los cambios)
D|--7-7--5-5----7-7----5-5--7-7--5-5---|------------------7-7---7-7-----------------------------------| 
A|--5-5--5-5----7-7----5-5--5-5--5-5---|------------------7-7---5-5--------------------------------|
E|---------3-3---5-5----3-3---------3-3--|------------------5-5--------------------------------|



Nadie la hizo llorar
e|-----------------------------------------------|
B|--------------------------------------------------|
G|---------7-7-----------------------------------------------|
D|--7-7---7-7--5-5-----------------------------------------------------| (chequeen los cambios)
A|--7-7---5-5--5-5-----------------------------------------------------------|
E|--5-5---------3-3---------------------------------------------------------|


espero q disfruten la rola q la verdad esta muy Buena. Cualkier reclamo escríbanme a tankian_28@hotmail


Que te parecio? Calificalo con estrellas!!

Rating: 6.9/10 (272 votos)

Este fichero es trabajo propio de su transcriptor y representa su interpretación personal de la canción. El material contenido en esta página es para exclusivo uso privado, por lo que se prohibe su reproducción o retransmisión, así como su uso para fines comerciales.


Deja tus comentarios:

Letras de Panda
Letras de canciones | Musica Independiente