Acordes y tablaturas para guitarra

Acordes y Tablaturas
Usuario: Password:

Buscar:
Acordes y Tablaturas >> Letra C >> Acordes de Camila >> Todo Cambio
Tablatura de Todo Cambio, Camila

Todo Cambio

Camila






Esta es una excelente cancion y creo q esta un 80 u 90% correcta cualquier duda o comentario haganlo saber espero les guste:

 Intro
e-----------------------------------------------------
B--------------------------------------8h10-----------
G--------------------------10-12-12p10------10-10/12--
D--------10-10h12----10-12----------------------------
A--11/12----------12----------------------------------
E-----------------------------------------------------

e-------------------------8/10-8-----------------------------
B---------------------10--8/10-8--10-8-8h10------------------
G------10-12-12-10-12-----------------------------10-10h12---
D10-12--------------------------------------10/12----------11
A------------------------------------------------------------
E------------------------------------------------------------

Verso 1

F         F7           A#     A#m
Todo cambió, cuando te ví
F                      F7           A#       A#m
de blanco y negro a color, me convertí
          Gm               Am
y fue tán fácil, quererte tanto,
A#              Am
algo que no imaginaba,
A#                 C             A#
fue entregarte mi amor con una mirada.

Riff 1
e-------------------
B--1/3-1------------
G-2------2-3--------

Verso 2

                F             F7            A#      A#m
Ohhhh no no no no....Todo tembló, dentro de mi
F                  F7                 A#      A#m
el universo escribió, que fueras para mi
          Gm             Am
y fué tan fácil quererte tanto
A#              Am
algo que no imaginaba
A#m                     Am
fue perderme   ( en tu amor )
                 A#
simplemente ( pasó )
                C
y todo tuyo ya soy.


Coro
           A#                 C
Antes que pasé más tiempo contigo amor
             F                         F7
tengo que decir que eres el amor de mi vida,
             A#                C
antes que te ame más, escucha por favor
          F               A#
dejame decir que todo te dí.

     Gm
Y no hay (como explicar)
     Am
pero menos ( dudar )
       A#              C
simplemente así lo sentí
           A#
cuando te ví.

Riff 1
e-------------------
B--1/3-1------------
G-2------2-3--------

Verso 3

F          F7         A#     A#m
Me sorprendió todo de tí
F                       F7            A#     A#m
de blanco y negro al color, me converti
              Gm             Am
sé que no es fácil, decir te amo
A#               Am
yo tampoco lo esperaba
A#               Am
pero así es el amor
               A#                C7
simplemente paso y todo tuyo ya soy


Coro

           A#                 C
Antes que pasé más tiempo contigo amor
             F                         F7
tengo que decir que eres el amor de mi vida,
             A#                C
antes que te ame más, escucha por favor
          F               A#
dejame decir que todo te dí.

     Gm
Y no hay (como explicar)
     Am
pero menos ( dudar )
       A#              C
simplemente así lo sentí
           A#
cuando te ví.

Riff final
e----------------
B-1/3-1----------
G-------0-0h2----


F
todo cambio, cuando te ví........


Estos son los acordes o las notas:
F   F7    A#  A#m  Gm   Am    C
e-1----1----6----6----3----5----3---
b-1----1----6----6----3----5----5---
g-2----2----7----6----3----5----5---
d-3----1----8----8----5----7----5---
a-3----3----8----8----5----7----3---
E-1----1----6----6----3----5----X---


***Esta Cancion se La Dedico A  La Niña Mas Linda LIZ***



Que te parecio? Calificalo con estrellas!!

Rating: 7.6/10 (928 votos)

Este fichero es trabajo propio de su transcriptor y representa su interpretación personal de la canción. El material contenido en esta página es para exclusivo uso privado, por lo que se prohibe su reproducción o retransmisión, así como su uso para fines comerciales.


Deja tus comentarios:

Letras de Camila
Letras de canciones | Musica Independiente