Acordes y tablaturas para guitarra

Acordes y Tablaturas
Usuario: Password:

Buscar:
Acordes y Tablaturas >> Letra M >> Acordes de My Chemical Romance >> Teenager
Tablatura de Teenager, My Chemical Romance

Teenager

My Chemical Romance






I. VERSO

Gtr 2 
e|---------------0---------------0--|--------------------------------0--|
B|---------------0---------------0--|--------------------------------0--|
G|----------------------------------|-----------------------------------|
D|----------------------------------|----------------------------2/4----|
A|--2-2-4-2---------2-2-4-2---------|--2-2-2-2-4-4-4-4--2-2-4-2---------|
E|--0-0-0-0--2-4----0-0-0-0--2-4----|--0-0-0-0-4-4-4-4--2-2-4-2---------|
(Continuado)
e|---------------0---------------0--|--------------------------------0--|
B|---------------0---------------0--|--------------------------------0--|
G|----------------------------------|-----------------------------------|
D|----------------------------------|-----------------------------------|
A|--7-7-7-7--7------2-2-4-2---------|--2-2-4-2-4-4-4-4--2-2-4-2---------|
E|--5-5-4-5--4/5----0-0-0-0--2-4----|--0-0-0-0-4-4-4-4--0-0-0-0--2-4----|

Then, (Gtr 2 sigue tocando ^^^ riff)
Gtr 1
e|----------------------------------|-------------------------------------|
B|----------------------------------|-------------------------------------|
G|----------------------------------|-------------------------------------|
D|----------------------------------|----------6-6-6-6--4-4-6-4-----------|
A|--7-7-7-7---------7-7-7-7---------|--7-7-7-7----------------------------|
E|----------------------------------|-------------------------------------|
(continua)
e|----------------------------------|--------------------------------------|
B|----------------------------------|--------------------------------------|
G|----------------------------------|--------------------------------------|
D|--7-7-7-7--7-6-4--4-4-6-----------|----------4-6-4-----------------------|
A|------------------------7--7-7----|--6-6-7-7-------7--7------------------|
E|----------------------------------|--------------------------------------|

Después, justo antes del coro:
Gtr 2
E|---------------------|
B|---------------------|
G|--11/13-13-11-97-9--|
D|---------------------|
A|---------------------|
E|---------------------|


II. CORO

Gtr 1 (Rapido)
e|----------------------------------|------------------------------------|
B|----------------------------------|------------------------------------|
G|--9-9-8-9--4-6-8--9-9-8-9--4-6-8--|--9-9-9-9-13131313-11111311-111111--|
D|--x-x-x-x--x-x-x--x-x-x-x--x-x-x--|--x-x-x-x--x-x-x-x--x-x-x-x--x-x-x--|
A|--7-7-6-7--2-4-6--7-7-6-7--2-4-6--|--7-7-7-7-11111111--9-911-9--9-9-9--|
E|----------------------------------|------------------------------------|
Gtr 2
e|---------------0---------------0--|--------------------------------0--|
B|---------------0---------------0--|--------------------------------0--|
G|----------------------------------|-----------------------------------|
D|----------------------------------|----------------------------2/4----|
A|--2-2-4-2---------2-2-4-2---------|--2-2-2-2-4-4-4-4--2-2-4-2---------|
E|--0-0-0-0--2-4----0-0-0-0--2-4----|--0-0-0-0-4-4-4-4--2-2-4-2---------|

Gtr 1
e|----------------------------------|----------------------|-----|
B|----------------------------------|----------------------|-----|
G|--14141414-141413-11-13-9--9-9-9--|--8-8-9-9-11-13-11-9--|--9--|
D|---x-x-x-x--x-x-x--x--x-x--x-x-x--|--x-x-x-x--x--x--x-x--|--x--|
A|--12121212-121211--9-11-7--7-7-7--|--6-6-7-7--9-11--9-7--|--7--|
E|----------------------------------|----------------------|-----|
Gtr 2
e|---------------0---------------0--|-------------------|-----|
B|---------------0---------------0--|-------------------|-----|
G|----------------------------------|-------------------|-----|
D|----------------------------------|-------------------|--2--|
A|--7-7-7-7--7------2-2-4-2---------|--2-2-4-2-4-4-4-4--|--2--|
E|--5-5-4-5--4/5----0-0-0-0--2-4----|--0-0-0-0-4-4-4-4--|--0--|

(repite verso y coro)

III. SOLO

Gtr 1
e|-----------------------------------|-----------------------------------|
B|-----------------------------------|-----------------------------------|
G|-----------------------------------|-----------------------------------|
D|--7-7-7-7-7-7-7-7-7-7-7-7-7-7-7-7--|--2-2-2-2-2-2-2-2-2-2-2-2-2-2-2-2--|
A|--7-7-7-7-7-7-7-7-7-7-7-7-7-7-7-7--|--2-2-2-2-2-2-2-2-2-2-2-2-2-2-2-2--|
E|--5-5-5-5-5-5-5-5-5-5-5-5-5-5-5-5--|--0-0-0-0-0-0-0-0-0-0-0-0-0-0-0-0--|
(continua)
e|-----------------------------------|-----------------------------------|
B|-----------------------------------|-----------------------------------|
G|-----------------------------------|-----------------------------------|
D|--7-7-7-7-7-7-7-7-7-7-7-7-7-7-7-7--|--9-9-9-9-9-9-9-9-9-9-9-9-9-9-9-9--|
A|--7-7-7-7-7-7-7-7-7-7-7-7-7-7-7-7--|--9-9-9-9-9-9-9-9-9-9-9-9-9-9-9-9--|
E|--5-5-5-5-5-5-5-5-5-5-5-5-5-5-5-5--|--7-7-7-7-7-7-7-7-7-7-7-7-7-7-7-7--|
Gtr 2
e|-----------------------------------12--|-----------12--|continua abajo
B|------------------------7-7h9-7h9--12--|-----------12--|
G|--9p7h9p7-9--7--5h6--9--7-7h9-7h9------|--14p12-13-----|
D|----------9--7--7----9-----------------|---------------|
A|---------------------------------------|---------------|
E|---------------------------------------|---------------|
(continua)
e|--------------------------------------------------|
B|--15^r^r-15-12h15p12-10h12p10-8--10^(12)rp8-10p8--|
G|--------------------------------------------------|
D|--------------------------------------------------|
A|--------------------------------------------------|
E|--------------------------------------------------|
(continua)
e|---------------------------------|
B|---------------------------------|
G|--9--7p5-6--9---9-9-9-7p5-6--9---|
D|--9---------9---9-9-9--------9---|
A|---------------------------------|
E|---------------------------------|
(continua)
e|-----------------------------------------------------|
B|-----------------------------------------------------|
G|--9^(11)~-9^-9^-9^-9^-9^-9^-9^-9^-9^-9^-9^-9^-9rvvv--|
D|-----------------------------------------------------|
A|-----------------------------------------------------|
E|-----------------------------------------------------|

Repite coro 2x

Gtr 2 fin:
e|-------------------|
B|-------------------|
G|--9s11-11p9p7--9~--|
D|-------------------|
A|-------------------|
E|-------------------|

-----------------------------------------------------------

ACORDES:

E                          E
they're gonna clean up your looks
E                          E
with all the lies and the books
E                        B
to make a citizen out of you
              A           A
because they sleep with a gun
             E
and keep an eye on you son
            B                      E
so they can watch all the things you do


E                          E
because the drugs never work
     E               E
they gonna give you a smirk
E              B
cause they got methods
                 E
of keeping you clean
               A
they're gonna rip out your heads
          E
your aspirations to shreads
         B                      E
another caught in the murder machine


             E                          E
they say all teenagers scare the living shit out of me
           E                    B
they could care less as long as someone will bleed
   A
so darken your clothes
           E
or strike a violent pose
               B
maybe they'll leave you alone
        E
but not me


E                          E
the boys and girls in the clique
      E                 E
the awful names that they stick 
           E                  B
you're never gonna fit in much kid
              A
but if you're troubled and hurt
             E
what you got under your shirt
               B                            E
we'll make them pay for the things that they did



             E                          E
they say all teenagers scare the living shit out of me
           E                    B
they could care less as long as someone will bleed
   A
so darken your clothes
           E
or strike a violent pose
               B
maybe they'll leave you alone
        E
but not me



* oh yeah *

(Solo)


             E                          E
they say all teenagers scare the living shit out of me
           E                    B
they could care less as long as someone will bleed
   A
so darken your clothes
           E
or strike a violent pose
               B
maybe they'll leave you alone
        E
but not me



All together now,

teenagers scare the living shit out of me
they could care less as long as someone will bleed
so darken your clothes
or strike a violent pose
maybe they'll leave you alone
but not me



teenagers scare the living shit out of me
they could care less as long as someone will bleed
so darken your clothes
or strike a violent pose
maybe they'll leave you alone
but not me


Que te parecio? Calificalo con estrellas!!

Rating: 7.7/10 (407 votos)

Este fichero es trabajo propio de su transcriptor y representa su interpretación personal de la canción. El material contenido en esta página es para exclusivo uso privado, por lo que se prohibe su reproducción o retransmisión, así como su uso para fines comerciales.


Comentario de arawn
bueno aca les dejo la tablatura y los acordes... chaaucha
Deja tus comentarios:
Letras de canciones | Musica Independiente