Enviado por:
colonavaja

The Beatles, Day Tripper

-------------------------------
-------------------------------
-------------------------------
--2----------4----2---------------   x 4
--2------5---2----2--5------------
--0--3-4--------------------------

Got a good reason
-------------------------------
-------------------------------
-------------------------------
--2----------4----2---------------   
--2------5---2----2--5------------
--0--3-4--------------------------

For taking the easy way out
-------------------------------
-------------------------------
-------------------------------
--2----------4----2---------------   
--2------5---2----2--5------------
--0--3-4--------------------------
Got a good reason
-----------------------------
-----------------------------
--2----------------4-------2----
--2------------5---2--2--5--------
--0-3-4-------------------------
-----------------------------

For taking the easy way out now
-------------------------------
-------------------------------
-------------------------------
--2----------4----2---------------   
--2------5---2----2--5------------
--0--3-4--------------------------
She was a day tripper
One way ticket, yeh
It took me so long to find out
And I found out

-------------------------------
-------------------------------
-------------------------------
--2----------4----2---------------   x 4
--2------5---2----2--5------------
--0--3-4--------------------------
She's a big teaser
She took me half the way there
She's a big teaser
She took me half the way there now
She was a day tripper
One way ticket, yeh
It took me so long to find out
And I found out
Tried to please her
She only played one night stands
Tried to please her
She only played one night stands now
She was a day tripper
Sunday driver, yeh
It took me so long to find out
And I found out
Day tripper, yeh
Day tripper, yeh
Day tripper, yeh


Aviso: Este fichero es trabajo propio de su transcriptor y representa su interpretación personal de la canción. El material contenido en esta página es para exclusivo uso privado, por lo que se prohibe su reproducción o retransmisión, así como su uso para fines comerciales.
comentario del colaborador: este ritmo lo saque yo solo por lo tanto no tiene fuente y si no suena bien deve ser porque su guitarra no esta afinada o consulte a [email protected] ;) gracias por su visita

Califica esta canción


Comentarios en Facebook