Acordes y tablaturas para guitarra

Acordes y Tablaturas
Usuario: Password:

Buscar:
Acordes y Tablaturas >> Letra M >> Acordes de Mago de Oz >> Marcha Turca
Tablatura de Marcha Turca, Mago de Oz

Marcha Turca

Mago de Oz






LAS PARTES SE REPITEN SAQUEN LA MARCHA TURCA ORIGINAL
Y VERAN Q ES CASI IGUAL.


Parte 1
e|----------------------------|---------7----------7---------8~|
B|----------------------------|-----------10-9-10----10-8-10---|
G|---------------7---------9--|10-9-8-9------------------------|
D|-9----------10---10-9-10----|--------------------------------|
A|---12-11-12-----------------|--------------------------------|
E|----------------------------|--------------------------------|

Parte 2
e|---------------------------------------------------|
B|----10-12-10-----10-12-10-----10-10h12p10----------|
G|-12-----------12-----------12--------------12-11-9~|
D|---------------------------------------------------|
A|---------------------------------------------------|
E|---------------------------------------------------|

Parte 1
e|-----------------------------|---------7----------7---------8~|
B|-----------------------------|-----------10-9-10----10-8-10---|
G|----------------7---------9--|10-9-8-9------------------------|
D|-9----------10----10-9-10----|--------------------------------|
A|---12-11-12------------------|--------------------------------|
E|-----------------------------|--------------------------------|

Parte 2
e|---------------------------------------------------|
B|----10-12-10-----10-12-10-----10-10h12p10----------|
G|-12-----------12-----------12--------------12-11-9~|
D|---------------------------------------------------|
A|---------------------------------------------------|
E|---------------------------------------------------|

Parte 3
e|---------------------|--------------------|
B|------8-8-10-8-------|-----8-8-10-8-------|
G|/9-10---------10-9-7~|9-10---------10-9-7~|
D|---------------------|--------------------|
A|---------------------|--------------------|
E|---------------------|--------------------|

e|------------------------|------------------------|
B|------------------------|------------------------|
G|-------9-9-10-9---------|-------9-9-10-9---------|
D|-10-12----------12-10-9~|-10-12----------12-10-9~|
A|------------------------|------------------------|
E|------------------------|------------------------|

Parte 1
e|-----------------------------|---------7----------7---------8~|
B|-----------------------------|-----------10-9-10----10-8-10---|
G|----------------7---------9--|10-9-8-9------------------------|
D|-9----------10----10-9-10----|--------------------------------|
A|---12-11-12------------------|--------------------------------|
E|-----------------------------|--------------------------------|

Parte 4
e|--------------------------------------------|
B|-10/12-13-13p12-10-9-10---------------------|
G|------------------------9-10-7--------------|
D|-------------------------------10~-9h10p9-7~|
A|--------------------------------------------|
E|--------------------------------------------|

Parte 3
e|---------------------|--------------------|
B|------8-8-10-8-------|-----8-8-10-8-------|
G|/9-10---------10-9-7~|9-10---------10-9-7~|
D|---------------------|--------------------|
A|---------------------|--------------------|
E|---------------------|--------------------|

e|------------------------|------------------------|
B|------------------------|------------------------|
G|-------9-9-10-9---------|-------9-9-10-9---------|
D|-10-12----------12-10-9~|-10-12----------12-10-9~|
A|------------------------|------------------------|
E|------------------------|------------------------|

Parte 1
e|-----------------------------|---------7----------7---------8~|
B|-----------------------------|-----------10-9-10----10-8-10---|
G|----------------7---------9--|10-9-8-9------------------------|
D|-9----------10----10-9-10----|--------------------------------|
A|---12-11-12------------------|--------------------------------|
E|-----------------------------|--------------------------------|

Parte 4
e|--------------------------------------------|
B|-10/12-13-13p12-10-9-10---------------------|
G|------------------------9-10-7--------------|
D|-------------------------------10~-9h10p9-7~|
A|--------------------------------------------|
E|--------------------------------------------|

Parte 5
e|-------9h10p9-------9h10p9----------------------|
B|-10-12--------10-12--------12-10-9----9-12-9----|
G|-----------------------------------11--------9--|
D|------------------------------------------------|
A|------------------------------------------------|
E|------------------------------------------------|

e|-------9h10p9------9h10p9--------------------|
B|-10-12-------10-12--------12-10-----12-9---10|
G|--------------------------------11-------9---|
D|---------------------------------------------|
A|---------------------------------------------|
E|---------------------------------------------|

Parte 5
e|-------9h10p9-------9h10p9----------------------|
B|-10-12--------10-12--------12-10-9----9-12-9----|
G|-----------------------------------11--------9--|
D|------------------------------------------------|
A|------------------------------------------------|
E|------------------------------------------------|

e|-------9h10p9------9h10p9--------------------|
B|-10-12-------10-12--------12-10-----12-9---10|
G|--------------------------------11-------9---|
D|---------------------------------------------|
A|---------------------------------------------|
E|---------------------------------------------|

sale pues originalmente es de la cuerda pero solo le modifique un poco cualquier duda a mi correo [email protected]


Que te parecio? Calificalo con estrellas!!

Rating: 6.9/10 (309 votos)

Este fichero es trabajo propio de su transcriptor y representa su interpretación personal de la canción. El material contenido en esta página es para exclusivo uso privado, por lo que se prohibe su reproducción o retransmisión, así como su uso para fines comerciales.


Comentario de ramses
pues aki les dejo esto que lo baje de la cuerda y lo modofique muy poko pero se la kome el kompa que la saco
Deja tus comentarios:

Letras de Mago de Oz
Letras de canciones | Musica Independiente