Enviado por: viernes3am
Agrandar Letra
Reducir Letra
Imprimir

Acordes:
½ tono
| +0 |
½ tono
||
Volver

Otras Versiones de Los caminos de la vida:

Vicentico, Los caminos de la vida

 Intro
	Lam
6E||------------------------------------------------|
5A||------------------------------------------------|
4D||--2-2-------------------------------------------|
3G||-------2-2--------------------------------------|
2B||------------1-1--------1--------1-----------3---|
1E||-----------------0-0------0-0------0-0--0-------|

6E|--------------------------------------------||
5A|--------------------------------------------||
4D|--------------------------------------------||
3G|-------------------2--------2---------------||
2B|0--3-3--0--3-3-3-1-----1-1-----1------------||
1E|------------------------------------1-1-1/0-||

		  Am
Los caminos de la vida
	          G
no son lo que yo esperaba,
	       F
no son lo que yo creía,
		C
no son los que imaginaba.

		  Am
Los caminos de la vida
	          G
son muy difícil de andarlos,
	       F
difíciles de caminarlos,
		C
y no encuentro la salida.

		  Am
Yo pensaba que la vida
        G
era distinta,

y cuando era chiquitito,
     F
yo creía que las cosas
                  C
eran fáciles como ayer.

		  Am
Que mi madre preocupada,
       G
se esmeraba

por darme todo lo que
     F
nececitaba,

y hoy me doy cuenta
                 C
que tanto así no es.

C
Porque a mi madre
C
la veo cansada,
C
de trabajar por mi hermano
      G
y por mi.

G
Y ahora con ganas
G
quisiera ayudarla,
G
y por ella la peleo
G         C
hasta el fin.

C
Por ella lucharé
C
hasta que me muera,
C
y por ella
C              G
no me quiero morir.

G
Tampoco que
G
se me muera mi vieja,
G
pero yo se
G                  C
que el destino es así.
 
Aviso: Este fichero es trabajo propio de su transcriptor y representa su interpretación personal de la canción. El material contenido en esta página es para exclusivo uso privado, por lo que se prohibe su reproducción o retransmisión, así como su uso para fines comerciales.
comentario del colaborador: Fuente:lacuerda.net

Califica esta canción


Comentarios en Facebook