Enviado por: ramses
Agrandar Letra
Reducir Letra
Imprimir











Panda, Los Malaventurados No Lloran

Intro
AQUÍ les saque esto con la guitarra aun que se oye mejor con bajo claro
e|-----------------------------------------------------------|
B|-----------------------------------------------------------|
G|-----------------------------------------------------------|
D|-----------------5-3----5-3---------------------33-5--33--1|
A|---3-1----3-1--6-----66-----6----3-5-----3-5--3------1-----|
E|-4-----44-----4--------------3-6-----3-6-------------------|

con el intro la guitarra toca esto
e|-----------------------------------------------------------|
B|-----------------------------3----------------4-----4-3----|
G|-5-------------8-------------3------------------5-------3--|
D|-6-------------8-------------5--------------------5-------3|
A|-6-------------6-------------------------------------------|
E|-----------------------------------------------------------|

Verso
Se que está en algún...
e|-----------------------------------------------------------|
B|----4-------------8----------3----------------4-----4-3----|
G|------5-------------8--------3------------------5-------3--|
D|-6------6-------------8------5--------------------5-------3|
A|---------------6-------------------------------------------|
E|-----------------------------------------------------------|


e|----4------------------------------------------------------|
B|------4-----------8----------3----------------4-----4-3----|
G|--------------------8--------3------------------5-------3--|
D|-6------6-------------8------5--------------------5-------3|
A|---------------6-------------------------------------------|
E|-----------------------------------------------------------|

Coro
Que aquí todo esta peor...
e|-----------------------------------------------------------|
B|-----------------------------------------------------------|
G|-----------88888888----------5555-3333---------------------|
D|--66666666-88888888-55555555-5555-3333---------------------| x2
A|--66666666-66666666-55555555-3333-1111---------------------|
E|--44444444----------33333333-------------------------------|

  Se repite el intro
e|-----------------------------------------------------------|
B|-----------------------------3----------------4-----4-3----|
G|-5-------------8-------------3------------------5-------3--|
D|-6-------------8-------------5--------------------5-------3|
A|-6-------------6-------------------------------------------|
E|-----------------------------------------------------------|


Verso
Se que ella se siente mejor...
e|-----------------------------------------------------------|
B|----4-------------8----------3----------------4-----4-3----|
G|------5-------------8--------3------------------5-------3--|
D|-6------6-------------8------5--------------------5-------3| x2
A|---------------6-------------------------------------------|
E|-----------------------------------------------------------|

Coro
Y decir que todo esta peor...
e|-----------------------------------------------------------|
B|-----------------------------------------------------------|
G|-----------88888888----------5555-3333---------------------|
D|--66666666-88888888-55555555-5555-3333---------------------| x2
A|--66666666-66666666-55555555-3333-1111---------------------|
E|--44444444----------33333333-------------------------------|


Me debería recordar...
e|-----------------------------------------------------------|
B|-----------------------------------------------------------|
G|--------------88888888888-------------5555-333333----------|
D|--66666666666-88888888888-55555555555-5555-333333----------| x2
A|--66666666666-66666666666-55555555555-3333-111111----------|
E|--44444444444-------------33333333333----------------------|


Solo (facilito compa)

Guitarra 1
e|-----------------------------------------------------------|
B|-----------------------------------------------------------|
G|---------------7--5-7-8--7-8-7-----------------------------|
D|--------5--6-8---------------------------------------------| x2
A|----6-8----------------------------------------------------|
E|-4---------------------------------------------------------|

La guitarra 2
Entra cuando la guitarra 1 repite
e|-----6-----------------------------------------------------|
B|----------------------------------4-----4-3----------------|
G|---8---8------7-8-7------7-8-7------5-------3--------------|
D|-6-------6--8-------8--5-------5------5-------3------------|
A|-----------------------------------------------------------|
E|-----------------------------------------------------------|

Verso
Se que esta en algún...
En esta parte no se oye guitarra pero el bajo toca algo parecido esto
e|-----------------------------------------------------------|
B|-----------------------------------------------------------|
G|-----------------------------------------------------------|
D|--------------------------55-333----55-333-----------------|
A|-----33-111----33-111--666-------666-----------------------|
E|-444--------444--------------------------------------------|

e|-----------------------------------------------------------|
B|-----------------------------------------------------------|
G|-----------------------------------------------------------|
D|------------------------------33335----3331----------------|
A|--------33-5--------33-5--333-------111--------------------|
E|-333-66------333-66----------------------------------------|


Encontrar el medio para yo...
e|----------------------------------------------------------------------|
B|----------------------------------------------------------------------|
G|-------------------8888888888888888------------------55555555-33333333|
D|--6666666666666666-8888888888888888-5555555555555555-55555555-33333333|
A|--6666666666666666-6666666666666666-5555555555555555-33333333-11111111|
E|--4444444444444444------------------3333333333333333------------------|

Coro
Que aquí todo esta peor...
e|-----------------------------------------------------------|
B|-----------------------------------------------------------|
G|-----------88888888----------5555-3333---------------------|
D|--66666666-88888888-55555555-5555-3333---------------------| x2
A|--66666666-66666666-55555555-3333-1111---------------------|
E|--44444444----------33333333-------------------------------|

Outro
e|-----------------------------------------------------------|
B|-----------------------------------------------------------|
G|--------------888888---------------------------------------|
D|--66666666666-888888---------------------------------------|
A|--66666666666-666666---------------------------------------|
E|--44444444444----------------------------------------------|

Aqui acaba sta rola que la neta pxndx si la supo hacer me trae buenos recuerdos de una vez que anduve en misiones por alla en coahuayana y conoci a AZUCENA la kiero muchisisimo
"""··'''  {(·)(·)} y {(*)(*)} 
Aviso: Este fichero es trabajo propio de su transcriptor y representa su interpretación personal de la canción. El material contenido en esta página es para exclusivo uso privado, por lo que se prohibe su reproducción o retransmisión, así como su uso para fines comerciales.

Califica esta canción


Comentarios en Facebook