Acordes y tablaturas para guitarra

Acordes y Tablaturas
Usuario: Password:

Buscar:
Acordes y Tablaturas >> Letra M >> Acordes de Mana >> bendita tu luz
Tablatura de bendita tu luz, Mana

Bendita tu luz

Mana






ACORDES:> G D Em C Am

ACORDES:> G D Em C Am

      G        D        Em       C        D
e-----------|--------|------3-|----------------|
B-------3---|----3---|----0---|-----0-----3----|
G-----0---0-|--2---2-|--0-----|---0-----2------|
D-----------|--------|--------|----------------|
A--3--------|0-------|2-------|-3-----0--------|
E-----------|--------|--------|----------------|

     G           D        Em     C       D
e-----------|--------|------3-|----------------|
B-------3---|----3---|----0---|-----0-----3----|
G-----0---0-|--2---2-|--0-----|---0-----2------|
D-----------|--------|--------|----------------|
A--3--------|-0------|2-------|-3-----0--------|
E-----------|--------|--------|----------------|


     G           D        Em       C        D
e-----------|--------|------3-|----------------|
B-------3---|----3---|----0---|-----0-----3----|
G-----0---0-|--2---2-|--0-----|---0-----2------|
D-----------|--------|--------|----------------|
A--3--------|-0------|2-------|-3-----0--------|
E-----------|--------|--------|----------------|
         Bendito el lugar    y el motivo de estar ahí
      G       D         Em        C        D
e-----------|--------|------3-|----------------|
B-------3---|----3---|----0---|-----0-----3----|
G-----0---0-|--2---2-|--0-----|---0-----2------|
D-----------|--------|--------|----------------|
A--3--------|-0------|2-------|-3-----0--------|
E-----------|--------|--------|----------------|
           Bendita la coincidencia



                               --------------------
                                                   |
     G           D        Em       C     D         |
e--3-----3---|3-----2---|3-----3---|--------------||
B--3--3------|3--3------|0--0----0-|-----1-----3--||
G--0--0----0-|2--2----2-|0--0------|---0-----2----||
D--0---------|0---------|2---------|-------0------||
A--2---------|0---------|2---------|-3------------||
E--3---------|0---------|0---------|--------------||Se toca junto
                                                   |Con 2 guitarras
                                                   |
G           D     Em     C      D            G     |
  Bendito el reloj que nos puso puntual, ahí       |
        D          Em    C  D                      |
Bendita sea tu presencia                           |
                                                   |
                               --------------------




Em       D             C      G
Bendito Dios por encontrarnos en el camino
Em             D        C         D
Y de quitarme esta soledad de mí destino

Coro

            G   D
Bendita la luz
            Am          C
Bendita la luz de tu mirada
            G   D
Bendita la luz
            Am          C                G
Bendita la luz de tu mirada desde el alma



G-D-Em-C-D




G               D
Benditos ojos que me esquivaban,
Em           D
Simulaban desdén que me ignoraba,
G             D
Y de repente sostienes la mirada,
Em           C
Di ran di ge rum  de re re


Em       D             C      G
Bendito Dios por encontrarnos en el camino,
Em             D        C         D
Y de quitarme esta soledad de mí destino


Coro

              G   D              Am          C
Bendita la luz     Bendita la luz de tu mirada
            G   D              Am            C
Bendita la luz     Bendita la luz de tu mirada oh…



G                       D
Gloria divina de esta suerte, del Buen Tino
Am                           C             D
De encontrarte justo ahí, en medio del camino.
Am                C               G
Gloria al cielo de encontrarte ahora,
Em                  Am
 llevarte mi soledad

D                      Em  C           G
Y coincidir en mi destino, en el mismo destino…


Solo


            G   D              Am          C
Bendita la luz     Bendita la luz de tu mirada
            G   D              Am          C
Bendita la luz     Bendita la luz de tu mirada
            G   D             Am           C
Bendita mirada oh  Bendita mirada desde el alma
        G   D
Tu mirada oh oh  (Bendita bendita bendita mirada
 Am                 C
Bendita tu alma y bendita tu luz)
        G     D                Am
Tu mirada oh oh  (Oh no no digo es
              C
tan bendita tu luz amor amor)
        G     D
Tu mirada oh oh (Bendito el reloj y bendito el lugar
Am                      C
Benditos tus besos cerquita del mar!)


        G       D
Tu mirada oh oh
          Am                 C               G
(Amor amor que bendita tu mirada tu mirada amor

BUENO ESPERO Q LE GUSTE CUALKIER COSA PASEN UN MENSAJE A [email protected] T AMOOO ISMARYS DE ALEJANDRO


Que te parecio? Calificalo con estrellas!!

Rating: 7.4/10 (1445 votos)

Este fichero es trabajo propio de su transcriptor y representa su interpretación personal de la canción. El material contenido en esta página es para exclusivo uso privado, por lo que se prohibe su reproducción o retransmisión, así como su uso para fines comerciales.


Deja tus comentarios:

Letras de Mana
Letras de canciones | Musica Independiente