Acordes y tablaturas para guitarra

Acordes y Tablaturas
Usuario: Password:

Buscar:
Acordes y Tablaturas >> Letra M >> Acordes de METALLICA >> Unforgiven 2
Tablatura de Unforgiven 2, METALLICA

Unforgiven 2

METALLICA






Song: Unforgiven II
Artist: Metallica
Album: I forget what it's called
Transcripter: x_myzery_x

THIS SONG KICKS ASS!!!!

b = Bend
h = Hammer
r = Reverse bend
p = Pull-off
~ = Vibration

Intro:

1st guitar play this [this was played by Kirk] :
|----------------------------------------------------------------|
|----------------------------------------------------------------|
|-2-2--4/5--75/7~-7/97--5/75--2-2--4/5--75/7~--7/97~--------|
|-2-2--4/5--75/7~-7/97--5/75--2-2--4/5--75/7~--7/97~--7/97-|   
|-0-0--2/3--53/5~-5/75--3/53--0-0--2/3--53/5~--5/75~--7/97-|    
|----------------------------------------------------------5/75-|

2nd guitar play this [this was played by jaymz] :
|----------------------------------------------------------------|
|----------------------------------------------------------------|
|-2-2--4/5--75/---7/97--5/75--5-2--4/5--75/----7/97~--------|
|-2-2--4/5--75/5~-7/97--5/75--5-2--4/5--75/5~--7/97~--7/97-|    
|-0-0--2/3--53/5~-5/75--3/53--3-0--2/3--53/5~--5/75~--7/97-|   
|---------------3~-----------------------------3~----------5/75-|

Verse 1:
|-------0----------------3-3------3--------------------|[This will  
|---------1------------1/3-3h5bp3---5bp3-0-0---1h3-1-0-| work as the
|-----2-------------0------------------------0---------| plucking 
|---2-------------2------------------------------------| style will 
|-0---------0-2-3--------------------------------------| always 
|------------------------------------------------------| change]    

Verse 2:
|-------0-----------3---3--------3--------------------|[This is a 
|---------1-------1---1---1--1/3---5bp3-0-0---1h3-1-0-| bit
|-----2-------------------------------------0---------| different]
|---2-------------------------------------------------|
|-0---------0-2-3-------------------------------------|
|-----------------------------------------------------|

Verse 3:
1st guitar.....
|-5---5---3---3---3---3----------|                                   
|-5---5---3---3---3---3---5---5--|                                   
|-5---5---5---5---5---5---5---5--|                                   
|--7---7---5---5---5---5--6---6--|                                
|--------------------------7---7-|                                   
|--------------------------------|   

2nd guitar.....
|------------------------------|[the echo level must be
|-6bp5~~~---------1h3~~~-------| high while playing this] 
|------------------------------|    
|------------------------------|
|------------------------------|
|------------------------------|

Verse 4:
|-1---1---1---1---3---3---1---1----0-|
|-3---3---3---3---3---3---3---3----0-|                                
|-2---2---2---2---2---2---2---2----2-|
|--0---0---0---0---0---0---0---0---2-|
|----------------------------------0-|
|------------------------------------|

Verse 5:
|-----1-----------------------------0-|
|-------3---------------------------0-|
|-------------2-3-------------------2-|
|---0-------0------------5-----3-5--2-|
|-0-------0----------2-3-----2------0-|
|-----------------3--------1----------|

Chorus:
|--------------------------------------------------------|
|-0h1--1--1--1--1p0--0--0--0--1h3--3--3--3--3p1--1--1--1-|
|-0----0--0--0--0----0--0--0--2----2--2--2--2----2--2--2-|
|--------------------------------------------------------|
|--------------------------------------------------------|
|--------------------------------------------------------|

|-----------------------------------------------------------|
|-0h1--1--1--1--1p0--0--0--0--1h3--3--3--3--3--1--0--1--0---|
|-0----0--0--0--0----0--0--0--2----2--2--2----------------2-|
|-----------------------------------------------------------|
|-----------------------------------------------------------|
|-----------------------------------------------------------|

Chorus fill in:
|-------------------|
|-------------------|
|-2-4-4/5-5-5-5-4-0-|
|-------------------|
|-------------------|
|-------------------|

Solo:
|----------------------------------------------|
|-----------------------------13-15br-13----13-|
|-2-2-4-5-7b-5h7p5-4-5----/14------------14----|
|----------------------5-----------------------|
|----------------------------------------------|
|----------------------------------------------|

|------15-----15-----15------------------|
|-15b----15b----15b----15b-15br-13----13-|
|----------------------------------14----|
|----------------------------------------|
|----------------------------------------|
|----------------------------------------|

|-15b--15b-15b-15b------17------------17--------|
|-------------------/17----17-20b-/17----17-20b-|
|-----------------------------------------------|
|-----------------------------------------------|
|-----------------------------------------------|
|-----------------------------------------------|

|-----17------------------------------------|
|-/17----17-20br-17----------19-17----19-17-|
|-------------------19-17----19-17----19-17-|
|-------------------------19-------19-------|
|-------------------------------------------|
|-------------------------------------------|

|---------------------------------|
|----19-17------------------19-17-|
|----19-17----17-19br-17----19-17-|
|-19-------19------------19-------|
|---------------------------------|
|---------------------------------|

End:
|------------------------------------------------------|
|------------------------------------------------------|
|--2-2~--2-2-4-4~---2~--2-7-7~--2-2~--2-4~~------------|
|--2-2~--2-2-4-4~---2~--2-7-7~--2-2~--2-4~~--5~~--2~~--|
|--0-0~--0-0-2-2~---0~--0-5-5~--0-0~--0-2~~--5~~--2~~--|
|--------------------------------------------3~~-------|


Que te parecio? Calificalo con estrellas!!

Rating: 8.7/10 (309 votos)

Este fichero es trabajo propio de su transcriptor y representa su interpretación personal de la canción. El material contenido en esta página es para exclusivo uso privado, por lo que se prohibe su reproducción o retransmisión, así como su uso para fines comerciales.


Deja tus comentarios:

Letras de METALLICA
Letras de canciones | Musica Independiente