Acordes y tablaturas para guitarra

Acordes y Tablaturas
Usuario: Password:

Buscar:
Acordes y Tablaturas >> Letra N >> Acordes de NIRVANA >> Smells like teen spirit
Acordes de Smells like teen spirit, NIRVANA

Smells like teen spirit

NIRVANA






asos5.bb5.csos5.do.e5.fsos5.f5.gsos5.
 Guitarra

Introdução:
     F5              Bb5     G#5              C#5
G|------------------3-3-3---------------------6-6---| [x6]
D|-3-3-3--x-x-x-x---3-3-3--5-6-6-6--x-x-x-x---6-6-5-|
A|-3-3-3--x-x-x-x---1-1-1--5-6-6-6--x-x-x-x---4-4-5-|
E|-1-1-1--x-x-x-x----------3-4-4-4--x-x-x-x-------3-|

 
B|--6-| [x2]
G|-5--|

B|--6-| [x4]
G|-5--|
Load up on guns and bring your friends
It's fun to lose and to pretend
She's over-bored and self assured
Oh no, I know a dirty word

Refrão:

B|---6--6--6--6---|
G|-5--5--5--5--5--|
           Hello, hello, hello, how low
B|-6--6--6--6---| [x2]
G|--5--5--5--5--|
Hello, hello, hello, how low
Hello, hello, hello, how low
B|-6--6--6---|
G|--5--5--5--|
Hello, hello, hello…
     F5              Bb5     G#5              C#5
G|------------------3-3-3---------------------6-6---| [x6]
D|-3-3-3--x-x-x-x---3-3-3--5-6-6-6--x-x-x-x---6-6-5-|
A|-3-3-3--x-x-x-x---1-1-1--5-6-6-6--x-x-x-x---4-4-5-|
E|-1-1-1--x-x-x-x----------3-4-4-4--x-x-x-x-------3-|
With the lights out, it's less dangerous
Here we are now, entertain us
I fell stupid, and contagious
Here we are now, entertain us
A mulatto, an albino
A mosquito, my libido, yeah

   F5  E5 F5 F#5     F5  E5 F5 A#5 G#5  F5  E5 F5 F#5     F5  E5 F5 A#5 G#5
G|---------------4b-------------------|---------------4b-------------------|
D|-3-3--2-3--4-4-----3-3--2-3--8-8--6-|-3-3--2-3--4-4-----3-3--2-3--8-8--6-|
A|-3-3--2-3--4-4-----3-3--2-3--8-8--6-|-3-3--2-3--4-4-----3-3--2-3--8-8--6-|
E|-1-1--0-1--2-2-----1-1--0-1--6-6--4-|-1-1--0-1--2-2-----1-1--0-1--6-6--4-|
                Yay!                                 Yay!

B|--6-| [x2]
G|-5--|

B|--6-| [x4]
G|-5--|
I'm worse at what I Do best
And for this gift I feel blessed
Our little group has always been
And always will until the end

Refrão

   F5  E5 F5 F#5     F5  E5 F5 A#5 G#5  F5  E5 F5 F#5     F5  E5 F5 A#5 G#5
G|---------------4b-------------------|---------------4b-------------------|
D|-3--2-2-3--4-4-----3--2-2-3--8-8--6-|-3--2-2-3--4-4-----3--2-2-3--8-8--6-|
A|-3--2-2-3--4-4-----3--2-2-3--8-8--6-|-3--2-2-3--4-4-----3--2-2-3--8-8--6-|
E|-1--0-0-1--2-2-----1--0-0-1--6-6--4-|-1--0-0-1--2-2-----1--0-0-1--6-6--4-|
                Yay!                                 Yay!

Solo: [Por Jônatas Santos]
e|-----------------------------------------------|
B|-----------------------------------------------|
G|--5--8--10/-------8--8b--8--6--5~--6--5--------|
D|--------------6~-------------------------8--6~-|
A|-----------------------------------------------|
E|-----------------------------------------------|
                                                                       
e|--------------------------------------------------|
B|--------------------------------------------------|
G|-------------------5--8--10/------8--8b--8--6--5~-|
D|--8--8b--8--6--5~-------------6~------------------|
A|--------------------------------------------------|
E|--------------------------------------------------|
                                                                    
e|---------------------------------------------|
B|---------------------------------------------|
G|--6--5---------------------------------------|
D|--------8--6~--8--8b--8--6--5~--6--5~--6--5~-|
A|---------------------------------------------|
E|---------------------------------------------|
                                                                       
e|----------------------------------------------------|
B|----------------------------------------------------|
G|----------------------------------------------------|
D|--6--5~--6p5--3--6--5~--6--5~--6--5~--6p5--3--6--5~-|
A|----------------------------------------------------|
E|----------------------------------------------------|
                                                                       
e|----------------------------------------------------|
B|----------------------------------------------------|
G|----------------------------------------------------|
D|6--5~--6--5~--6p5--3--6--5~--6--5~--6--5~--6p5--3~--|
A|----------------------------------------------------|
E|----------------------------------------------------|
                                                               
And I forget just what I taste
Oh yeah, I guess it makes me smile
I found it hard, it's hard to find
Oh well, whatever, never mind

Refrão
     F5              Bb5     G#5              C#5
G|------------------3-3-3---------------------6-6---| [x4]
D|-3-3-3--x-x-x-x---3-3-3--5-6-6-6--x-x-x-x---6-6-5-|
A|-3-3-3--x-x-x-x---1-1-1--5-6-6-6--x-x-x-x---4-4-5-|
E|-1-1-1--x-x-x-x----------3-4-4-4--x-x-x-x-------3-|
A denial, a denial
A denial, a denial
A denial, a denial
A denial, a denial

   F5
D|-3-|
A|-3-|
E|-1-|
A denial

Baixo

Introdução / Refrão / Solo / Finalização
A|----------1-1-1----------4-4-4-|
E|-1--1-1---------4--4-4---------|
Introdução: 4x
Refrão: 6x
Solo: 8x
Finalização: 4x

Versos
A|---------1-1-1-1/3---------4-4-4-3\-|
E|-1-1-1-1-----------4-4-4-4----------|
A cada estrofe: 10x [até "Hello, hello, hello..."]
Após o Solo: 2x

Após o Refrão
G|-------------------------------|
D|------------------------------o|
A|-------------3----------1-1---o|
E|-1-1-0-1-2-2----1-1-0-1-----4--|

 

Que te parecio? Calificalo con estrellas!!

Rating: 7.7/10 (2353 votos)

Este fichero es trabajo propio de su transcriptor y representa su interpretación personal de la canción. El material contenido en esta página es para exclusivo uso privado, por lo que se prohibe su reproducción o retransmisión, así como su uso para fines comerciales.


Deja tus comentarios:
Letras de canciones | Musica Independiente