Acordes y tablaturas para guitarra

Acordes y Tablaturas
Usuario: Password:

Buscar:
Acordes y Tablaturas >> Letra H >> Acordes de Hombres G >> venecia
Acordes de venecia, Hombres G

Venecia

Hombres G






csos.fsos.gsos.
 
INTRO[DESPUES DE LA DEL PIANO]:
Esto lo tocan cuatro veces las 2 
guitarras con pequeñas variaciones:

|-------4-|-------4-|---------|---------|
|-2-4-2---|-2-4-2---|-2-4-2-4-|-6-4-6-4-|
|---------|---------|---------|---------|
|---------|---------|---------|---------|
|---------|---------|---------|---------|
|---------|---------|---------|---------|


VERSOS:
Esta es la guitarra 2 y se toca con palm muted todo.
la guitarra 1 toca los acordes marcados en ritmo como 
de regue:

C# F# 
|-----------------------------------------|
|-----------------------------------------|
|-6666-6666-6666-6666---------------------|
|-6666-6666-6666-6666-4444-4444-4444-4455-|
|-4444-4444-4444-4444-4444-4444-4444-4455-|
|---------------------2222-2222-2222-2233-|
1.IO SONO AL CAPONE DE LA MAFIA
2.ESTAVANO PER FACCI LA NUMERO MILE

G# C# F# G#
|-----------------------------------------|
|-----------------------------------------|
|---------------------6666-6666-----------|
|-6666-6666-6666-6666-6666-6666-4~~~-6~~~-|
|-6666-6666-6666-6666-4444-4444-4~~~-6~~~-|
|-4444-4444-4444-4444-----------2~~~-4~~~-|
IO SONO EL FIGLIO DE LA MIA MAMA
CUANDO ARRIVO LA GUARDIA CIVILE

C# F# 
|-----------------------------------------|
|-----------------------------------------|
|-6666-6666-6666-6666---------------------|
|-6666-6666-6666-6666-4444-4444-4444-4455-|
|-4444-4444-4444-4444-4444-4444-4444-4455-|
|---------------------2222-2222-2222-2233-|
TU SE UN STRANGO DI MERDA
IO SONO AL CAPONE DE LA MAFIA

G#
|---------------------|
|---------------------|
|---------------------|
|-6666-6666-6666-6666-|
|-6666-6666-6666-6666-|
|-4444-4444-4444-4444-|
E UN FIGLIO DI TROYA IN
SI NO LE PRENTI LI 


PRECOROS:
Esto lo tocan 4 veces las dos guitarras:

|-1~~~~~~~|-1~~~~~~~~~|----1-1-|
|-2~~~~~~~|-1~~~~~~~~~|----1-1-|
|-3~~~~~~~|-1~~~~~~~~~|----1-1-|
|-3~~~~~~~|-3~~~~~~~~~|----3-3-|
|-1~~~~~~~|-3~~~~~~~~~|----3-3-|
|-X-------|-1~~~~~~~~~|----1-1-|
1.VENE________CIA________ CHA CHA
2.LA FA_______CCIA_______ CHA CHA

......Y LUEGO..........:

|------------------|----------------------|
|-------2----------|------------4---------|
|-----3-------3----|------5---5-----------|
|---4-------4---4--|----6---6-------------|
|-4-------4--------|--6-------------------|
|------------------|----------------------|

|------------------|----------------------|
|----2---2---2---2-|----4---4-------------|
|---3---3---3---3--|---5---5--------------|
|--4---4---4---4---|--6---6---6-----------|
|-4---4---4---4----|-6---6---6------------|
|------------------|------------4--6--8---|


COROS:
En el coro puedes tocar lo mismo de la intro, o una
octava mas abajo:

|---------|---------|---------|---------|
|---------|---------|---------|---------|
|---------|---------|---------|---------|
|-------6-|-------6-|---------|---------|
|-4-6-4---|-4-6-4---|-4-6-4-6-|-8-6-8-6-|
|---------|---------|---------|---------|


SOLOS:

1.
|--------------------------------------------------------|
|-7p6-6-6---------6h7p6----------------------------------|
|---------6-6---6-------6---6-6-------------------------|
|-------------8-----------8--------3-4-3-4-3-4/6-4-3-3---|
|------------------------------------------------------4-|
|--------------------------------------------------------|

|---------------------------------9----------------------|
|-7-7-7-6-7-6--------9-6-6----------7-6-7-7/9--9-9-9-----|
|-------------6----6-------6----6------------------------|
|--------------------------------------------------------|
|--------------------------------------------------------|
|--------------------------------------------------------|

2.Este solo se escucha a partir de la segunda repeticion del coro:
|-----------------------------------------------------------------|
|-----------------------------------------------------------------|
|-----------------------------------------------------------------|
|-3p4-3-3-------------------------3---3-3-3-3-3-3-6-6-6-6-4-4-3-3-|
|---------4-4-4-4-4-4-4-4-4-4-4-4---4-----------------------------|
|-----------------------------------------------------------------|

|-----------------------------------------------------------------|
|-----------------------------------------------------------------|
|-----------------------------------------------------------------|
|----3-3-4-4-6-6/8-6-6/8-6--4-3-4-3-4-4/6-6-4-3-4-----------------|
|-/4-----------------------------------------------/4-4-3---------|
|-----------------------------------------------------------------|

|------------------------------------------------------------------------|
|------------------------------------------------------------------------|
|------------------------------------------------------------------------|
|--------------------------------------------------------------3h4 4/6-6-|
|-/4-4-4-4-4-4-4-4-4-4-4-4---/4-4/6-6/8-8-8-8--4/6-6-6-6-4-3-4-----------|
|--------------------------4---------------------------------------------|

|------------------------------------------------------------------------|
|------------------------------------------------------------------------|
|-----------------------------------------------------------------3h6~~--|
|-6/8-86-6/8-8/11-11-11/13-13-13/11-11--4-6-6-4-4-3-4-3-3-3h4-6--------|
|------------------------------------------------------------------------|
|------------------------------------------------------------------------|


3.Ahora si el del final:
|--------------------------------------6---------------------------|
|---6h7p6---6h7-6-------6h7p6--------------------------------------|
|-6-------6-----------6-------6-6--6/8---8-6---6-------------------|
|-------------------8------------------------8---8-8-8-6-6-6-4-4-4-|
|------------------------------------------------------------------|
|------------------------------------------------------------------|

|--------------------------------------------------------------------|
|--------------------------------------------------------------------|
|--------------------------------------------------------------------|
|-4-4-4--4-4-4-4-4-4--4-4-4-3-3-3-4-4-4-6-6-6--4-4-3-4-4/6-6-6-6/8-8-|
|--------------------------------------------------------------------|
|--------------------------------------------------------------------|

|----------------------|
|-------7--6-6---------|
|--6-6----------6-6~~~~|
|----------------------|
|----------------------|
|----------------------|
 

Que te parecio? Calificalo con estrellas!!

Rating: 6.8/10 (64 votos)

Este fichero es trabajo propio de su transcriptor y representa su interpretación personal de la canción. El material contenido en esta página es para exclusivo uso privado, por lo que se prohibe su reproducción o retransmisión, así como su uso para fines comerciales.


Deja tus comentarios:

Letras de Hombres G
Letras de canciones | Musica Independiente