Enviado por: nirvana_punk
Agrandar Letra
Reducir Letra
Imprimir

Acordes:
½ tono
| +0 |
½ tono
||
Volver

Otras Versiones de Been A Son:









Nirvana, Been A Son

 Kurt tocava essa musica com a 6ª corda [Mizona] afinada Em Ré,
mas pode ser toca na afinação normal fasendo os acordes.

Verses/Interlude
    D5       
E|----------------|--------------
B|--3-3--------3--|-3-3----------
G|--2-2--------2--|-2-2----------
D|--0-0--------0--|-0-0----------
A|--0-0--3-2-0-0--|---0-3-2-0----
D|----------------|--------------

Chorus:
  G5     F5   E5
E|----------------------------
B|--------------|-------------
G|--------------|-------------
D|5--5-5-3--3-2-|-2-2-0-------
A|5--5-5-3--3-2-|-2-2-0-3-2-0-
D|5--5-5-3--3-2-|-2-2-0-------



---------------------- 
Denis De Nadai Carraro

Been A Son
 

She should have stayed away from friends
She should have had more time to spend
She should have died when she was born
She should have worn the crown of thorns
She should have been a son
She should have been a son
She should have been a son
She should have been a son
She should have stood out in the crowd
She should have made her mother proud
She should have fallen on her stance
She should have had another chance
She should have been a son
She should have been a son
She should have been a son
She should have been a son


Correção: Lucas [Peixoto] 
Aviso: Este fichero es trabajo propio de su transcriptor y representa su interpretación personal de la canción. El material contenido en esta página es para exclusivo uso privado, por lo que se prohibe su reproducción o retransmisión, así como su uso para fines comerciales.

Califica esta canción


Comentarios en Facebook