Acordes y tablaturas para guitarra

Acordes y Tablaturas
Usuario: Password:

Buscar:
Acordes y Tablaturas >> Letra A >> Acordes de Allison >> Me Cambio (acustica)
Acordes de Me Cambio (acustica), Allison

Me Cambio (acustica)

Allison






c.d.em.g.
 


esta es la version acustica de de una cancion q me parecio muy facil sacarla

G C Em D C X2

G
Pues me cambio
C
Todo por un auto nuevo
  Em                 D     C
Dinero y lujos que no pude darle
G                      C
Maldita sea me cambio [me cambiooooo]

Em              D       C
Lo mio era amor y ella lo
    G     C     Em      D   C
Tiroo oh oh oh oh oh oh oh oh
    G     C     Em      D   C
Me cambio oh oh oh oh oh oh oh oh oh


G
Ayer la vi
C
Estaba sobre su auto nuevo
Em                 D     C
Mirando al cielo y dando su reflejo
G              C          Em
Al verme de mi se acordó [se acordóoooooooo]

    D             C
Lo mio era amor y ella lo
    G     C    Em     D    C
Tiroo oh oh oh oh oh oh oh oh
   G      C     Em    D     C
Me cambio oh oh oh oh oh oh oh oh oh


EN ESTA PARTE ARPEGIE ESTO
E|-------------------------------------------------------|[*4]
B|-------------------------------------------------------|
G|------------------5-------9--------7-------------------|
D|---5--------------5-------9--------7 ------------------|
A|---5--------------3-------7--------5-------------------|
E|---3---------------------------------------------------|

eso lo puede hacer una guitarra y la otra puede hacer esto

E |-----------------------------10------------------------|[*2]
B |--8-7-----8-7----8-7----7-8----------------------------|
G |------7-------5------0---------------------------------|
D |-------------------------------------------------------|
A |-------------------------------------------------------|
E |-------------------------------------------------------|


NUNCA ME AMO SOLO ME USO ERA INTERES MAS NO ERA AMOR

asi hasta el final de la cancion




 

Que te parecio? Calificalo con estrellas!!

Rating: 8.1/10 (328 votos)

Este fichero es trabajo propio de su transcriptor y representa su interpretación personal de la canción. El material contenido en esta página es para exclusivo uso privado, por lo que se prohibe su reproducción o retransmisión, así como su uso para fines comerciales.


Deja tus comentarios:

Letras de Allison
Letras de canciones | Musica Independiente