Acordes y tablaturas para guitarra

Acordes y Tablaturas
Usuario: Password:

Buscar:
Acordes y Tablaturas >> Letra C >> Acordes de Camila >> Coleccionista de Canciones
Tablatura de Coleccionista de Canciones, Camila

Coleccionista de Canciones

Camila






Intro:

  C#
e----------------------------------------------|
B--2/4--4/6--1--2/4------2/4--4/6--1--2/4------|
G--3----------------1/3--3----------------1/3--|
D--4---------------------4---------------------|
A----------------------------------------------|
E----------------------------------------------|

C#                                A#m
e-------------------------------------------------------|
B-------2-1------------------------2h1------------------|
G-------------------------------------------------------|
D---4-------------------------3-------------------------|
A-3-------------------------1---------------------------|
E-------------------------------------------------------|
 Tu...coleccionista de canciones
       F#                   G#
e----------------------------------------------3h4------|
B-------------2------------------------------4----------|
G------------4------------------------------6-----------|
D-----------3------------------------------5------------|
A----------4------------------------------6-------------|
E---------2------------------------------4--------------|
 dame razones                     para vivir
C#                      A#m                     F#
e---------------------------------------------------------|
B----2-1----------------------2---------------------------|
G----------------------------3---------------------3------|
D--4------------------------3---------------------4-------|
A-3------------------------1---------------------4--------|
E-----------------------------------------------2---------|
 tu.........la dueña de mis sueños, quedate en ellos
           G#          F           A#m
e-------------------------------------------------------|
B-----------------6--------3--------2-------------------|
G---------------6---------3--------3--------------------|
D-------------6----------3--------3---------------------|
A--------------------------------1----------------------|
E-----------4----------1--------------------------------|
  y hasme sentir             y asi
        D#m                                   A#m
e-------1------------2----------------------------------------|
B-2--4-----------4-------------------------2------------------|
G------------3-----------2----------------3-------------------|
D--------1--------------1----------------3--------------------|
A---------------------------------------1---------------------|
E----------------------1--------------------------------------|
  en tu misterio poder           descubrir
       D#m
e-------1------------2---------------------------------------|
B-2--4-----------4-------------------------------------------|
G-------------3--------------2-------------------------------|
D---------1----------------1---------------------------------|
A------------------------------------------------------------|
E------------------------1-----------------------------------|
   el sentimiento eterno.........

F#                        C#
Tu con la luna en la cabeza
                   F#
El lugar en donde empieza
                    D#m           G#
El motivo y la ilusion de mi existir


C#                                    A#m
Tan solo tu solamente quiero que seas tu
                       F#        D#m
Mi locura mi tranquilidad y mi delirio
       F#          G#
Mi compas y mi camino

    C#                           A#m
Y solo tu solamente quiero que seas tu
                           F#
Yo pongo en tus manos mi destino
                    F#         F#     G#       C#
Porque vivo para estar siempre, siempre contigo amor

e------------------------------------------------------
B-2/4--4/6--1--2/4---------2-3---2-2/4--4/6--1--2/4----
G-3----------------1/3----3------3------------------1/3
D-4----------------------4-------4---------------------
A------------------------------------------------------
E------------------------------------------------------

     C#              A#m       F#
Tu coleccionista de canciones, mil emociones
     G#
son para ti
    C#                   A#m      F#
Tu lo que soñe mi vida entera, quedate en ella
          G#
Y hazme sentir
  D#m                               A#m
e------1------------2--------------------------------------|
B--2-4-----------4------------------------2----------------|
G-------------3-------------2------------3-----------------|
D---------1----------------1------------3------------------|
A--------------------------------------1-------------------|
E-------------------------1--------------------------------|
Y asi ir transformando la magia de ti
 D#m                  F
e------1-----------2---------------------------------------|
B--2-4----------4------------------------------------------|
G------------3-----------2---------------------------------|
D---------1-------------1----------------------------------|
A----------------------------------------------------------|
E---------------------1------------------------------------|
 En un respiro del alma

 F#                       C#
Tu con la luna en la cabeza
                   F#
El lugar en donde empieza
                   D#m             G#
El motivo y la ilusion de mi existir
      C#                            A#m
Tan solo tu solamente quiero que seas tu
                       F#          D#m
Mi locura, mi tranquilidad y mi delirio
       F#           G#
Mi compas y mi camino.
    C#                           A#m
Y solo tu solamente quiero que seas tu
                            F#
Yo pongo en tus manos mi destino
                     F#         G#
Porque vivo para estar siempre contigo......

A                                  B
Ya no queda mas espacio en mi interior
                               A
Has llenado con tu luz cada rincon
                                      F#        G#
Es por ti que con el tiempo mi alma siente diferente
F#   G#
So..Lo..

                             A#m
Tu solamente quiero que seas tu
                    F#           D#m
Mi locura mi tranquilidad y mi delirio
     F#          G#
Mi compas y mi camino
  C#                            A#m
Solo tu solamente quiero que seas tu
                            F#
Yo pongo en tus manos mi destino
                    F#       F#       G#        C#
Porque vivo para estar siempre, siempre, siempre contigo amor

El final es asi :
e--9-11-13---9-11---|-9-11-13--9-11---|
B---------13-----11-|--------13----11-|
G-------------------|-----------------|
D-------------------|-----------------|
A-------------------|-----------------|
E-------------------|-----------------|

C#  A#m  F#  D#m  G#  X2



ACORDES

F#  244322
G#  466544
D#m x68876
A#m x13321
A   x02220
B   x24442
C#  x46664


Esta Cancion Va dedicada para liz tu sabes lo q siento por ti
un saludo para mi parche


Que te parecio? Calificalo con estrellas!!

Rating: 7.6/10 (1280 votos)

Este fichero es trabajo propio de su transcriptor y representa su interpretación personal de la canción. El material contenido en esta página es para exclusivo uso privado, por lo que se prohibe su reproducción o retransmisión, así como su uso para fines comerciales.


Deja tus comentarios:

Letras de Camila
Letras de canciones | Musica Independiente