Acordes y tablaturas para guitarra

Acordes y Tablaturas
Usuario: Password:

Buscar:
Acordes y Tablaturas >> Letra A >> Acordes de Almafuerte >> Debes Saberlo
Tablatura de Debes Saberlo, Almafuerte

Debes Saberlo

Almafuerte






SIGUE FALTANDO LO DEL FINAL

INTRO
e|-----------------|
B|-----------------|
G|-----------------|	X 4
D|-25402-----------|
A|------42-------2-|
E|-------0-5435030-|

Me quede sin nada…
e|-----------------------------------|
B|-----------------------------------|
G|-----------------------------------|
D|----------------------9------------|
A|-2---5--7-9---5---7---7---------2--|
E|-0---3--5-7---3---5-------5435030--|

Abandonado de toda…
e|------------------------------------------------|
B|-------------87---------------------------------|
G|---------------976------------------------------|
D|------------------97--------9-----9-8-7---------|
A|-2---5--7-9---------5---7---7-----7-6-5---------|
E|-0---3--5-7---------3---5----------------0-1-3--|

Sin poder esquivar…
e|---------------------------|
B|---------------------------|
G|---------------------------|
D|-----7-8---7-----10-8-7-5--|
A|-5---5-6---5-5----8-6-5-3--|
E|-3-----------3-------------|

Sin creer haber…
e|--------------------|------------------------------------|
B|--------------------|------------------------------------|
G|--------------------|------------------------------------|
D|-----7-8---7-5---7--|---25402-----------25402------------|
A|-5---5-6---5-3---5--|-2------42-------2------42-------2--|
E|-3------------------|-0-------0-5435030-------0-5435030--|

Solo es un mal dia… 
e|-----------------------------------|
B|-----------------------------------|
G|-----------------------------------|
D|----------------------9------------|
A|-2---5--7-9---5---7---7---------2--|
E|-0---3--5-7---3---5-------5435030--|

Todo es vacio…
e|------------------------------------------------|
B|-------------87---------------------------------|
G|---------------976------------------------------|
D|------------------97--------9-----9-8-7---------|
A|-2---5--7-9---------5---7---7-----7-6-5---------|
E|-0---3--5-7---------3---5----------------0-1-3--|

Si no hay amor…
e|---------------------------|
B|---------------------------|
G|---------------------------|	X 3
D|-----7-8---7-----10-8-7-5--|
A|-5---5-6---5-5----8-6-5-3--|
E|-3-----------3-------------|

Si no hay amor se pierde siempre
e|-----------------|
B|-----------------|
G|-----------------|	
D|-----7-8---7-5---|
A|-5---5-6---5-3---|
E|-3---------------|

ACA HACE ALGO Q NI GANAS DE SACARLO... VIENE EL SOLO Y DESPUES REPITE LO ULTIMO Y LO Q NO SAQUE EN EL FINAL


Que te parecio? Calificalo con estrellas!!

Rating: 4.3/10 (63 votos)

Este fichero es trabajo propio de su transcriptor y representa su interpretación personal de la canción. El material contenido en esta página es para exclusivo uso privado, por lo que se prohibe su reproducción o retransmisión, así como su uso para fines comerciales.


Deja tus comentarios:

Letras de Almafuerte
Letras de canciones | Musica Independiente